Artists by letter: A B C D E F G H I J K L M N O P Q R S T U V W X Y Z 0-9

 
Senor Limpio Tab
Tsb: Lopez017
Album: Deliverance.
Band: Corrosion Of Conformity.

fb =  full bend  |  ph = pinch harmonic  |  ^ = half step bend
   . = palm mute   |  ~ = vibrato          | pb  = pre-bend

main riff
d-----------------------|------------------|
A-----------------------|------------------|    (high note
F-----------------------|------------------|   on 5 may bent
C-----------------------|------------------|    up to from
G---------------5-------|------------------|     3 or 4)
C--0--0-0-3p0-0---0-6-5-|-0--0-0-3p0-0-0---|
      . .     .              . .     . .
fills
d-------------------|--------------|-------------|
A-------------------|--------------|-------------|
F-------------------|--------------|-------------|
G-------------------|--------------|-------------|
G-------------------|--------------|----0-0-0----|
C---0-0-0-0-(ph)3~--|---0-3-0-5~---|----0-0-0----|
                                        . . .
       first           second          between verses

pre-chorus riff
d-------------------------|--------------|---------------|
A-------------------------|--------------|---------------|
F---------------------(ph)|--------------|---------------|
G----------------------3~-|--------------|---------------|
G---3h5-5-0-3h5-5--3h5----|--3h5-5-0-3h5-|5-3-0----------|
C-------------------------|--------------|------6-5-3~---|
          .                        .
    beginning                 middle          end(fills substituted)
fills
d-----------------|------------|
A-----------------|------------|
F-----------------|------------|
G---ph5^---ph3~---|-----5~~~---|
G--------5--------|------------|
C-----------------|------------|
         .
     first           second

chorus riff
d-------------------------------------|
A-------------------------------------|
F-------------------------------------|
C-------------------------------------|
G---5-5--5-5^-3--5-5^-3--5-5^-3--5-6--|
C---5-5--5-5^-3--5-5^-3--5-5^-3--5-6--|
         .       .       .
d----------------------------------------|
A----------------------------------------|
F----------------------------------------|
C----------------------------------------|
G---0-0--0-3--0-0--0-5--0-0--0-3--6-5-3--|
C---0-0--0-3--0-0--0-5--0-0--0-3--6-5-3--|
    . .       . .       . .

under solo is just this part of main riff repeated
e-----------------------|
B-----------------------|
G-----------------------|
D-----------------------|
A--------------5--------|
C-0--0-0-3p0-0---0-6-5--|
under pre-chorus part of solo is the same riff without fills

solo

woody
d---------------------------------------------------------|
A---------------------------------------------------------|
F----------------------------------12fb-----------12/14---|
G--12p10-----10h12~~---12-12p10-----------12--15----------|
G-------------------------------12------------------------|
C---------------------------------------------------------|

d--------------------------15fb-----------------------------------------|
A-----------------14fb~~~------xx-------------------------------------|
F--12p10----10-12--------------xx-------------10----12p10----10--13~--|
G--------12--------------------xx-------10-12----12-------12---------|
G------------------------------xx----12------------------------------|
C------------------------------xx------------------------------------|
pepper
d------------------------------------------------------|
A------------------------------------------------------|
F--12^--12h13--12--10------pb12phr10--10----10---------|
G---------------------12-----------------12------------|
G----------------------------------------------12-11---|
C------------------------------------------------------|

d-------------------------------------------|
A-------------------------------------------|
F--------------------------------10--10-----|
G------5^------------------10h12--------12--|
G--5-8----8-5--------10h12------------------|
C---------------10h12-----------------------|
   . .
d----------------------10-------13fb--15fbr-13-13fbr------------|
A--13fb-(14)r13--10-13----13-10----------------------15-13fb~---|
F---------------------------------------------------------------|
G---------------------------------------------------------------|
G---------------------------------------------------------------|
C---------------------------------------------------------------|
both
d-----------------------------------------------|
A-----------------------------------------------|  (hold the bend
F-----10-12fb-(14^ph14^)14r12-10--------10-12^--|  and give it an
G--12----------------------------12--12---------|    extra pinch
G-----------------------------------------------|   harmonic bend)
C-----------------------------------------------|

d------------------------------------|
A--------13fb-13-10-13-13fb----------|
F-----10--------------------12-------|
G--12--------------------------12----|
G------------------------------------|
C------------------------------------|
                                        
                                            
                                            
                                        
                                                                
                        
                        
                        
                                                    Tabs too difficult? Try these easy step-by-step video lessons and learn fast!
    

                        
                                                    
                                UG plus: remove banner
                                                                    
                                    
                                    
                                                            
                                                

                    

                
                
                
                    
                        comments
                    
                                            
                            We did not receive enough feedback on this tab! Please rate:
                        
                                        
                        print report bad tab
                    
                                            
                                                            1
                                                            2
                                                            3
                                                            4
                                                            5
                                                    
                                    
                
                                    
                
                    
                         
    
        
        
            
            
                I want to post
            
            
                 comment
            
            
                or
            
            
                 correction
            
            
                [tab]
            
        
        
              
            guest
                
            
                
                    
                        
                        
                            
                                                            
                                    You may want to rate the tab now too:
                                    
                                        
                                            
                                            
                                                select rating
                                            
                                        
                                        
                                                                                            
                                                                                            
                                                                                            
                                                                                            
                                                                                            
                                                                                    
                                    
                                
                                                    
                    
                
                
                    
                                                Please do not post tabs as comments. Select "correction" instead!
                        
                    
                
            
        
        
        
        
        
    
                    
                

            
        
            







    
        var current_rating       = 0;
        var current_rating_count = 0;
        var tabid                = 1455618;
        var ug_serv              = ".ultimate-guitar.com";
        var tabs_user_id         = 610584;
        var transpose_to         = 0;
        var has_ad_free          = '0';
        var tab_info             = {
            'name': 'senor limpio',
            'version': 3,
            'type': 'Tabs'
        };

        
                    var ga_preffix = 'Text tabs ';
            $('.etp_banner .close_etp').click(function(){
                $(this).parents('.etp_banner').css('height', 0).removeClass('open');
                return false;
            });

            $('.etp_banner .buybtn').click(function(){
                $('.etp_banner').css('height', 0).removeClass('open');
            });

                    
        

        (function(d, s, id) {
          var js, fjs = d.getElementsByTagName(s)[0];
          if (d.getElementById(id)) return;
          js = d.createElement(s); js.id = id;
          js.src = "//connect.facebook.net/en_GB/all.js#xfbml=1&appId=539490962762175";
          fjs.parentNode.insertBefore(js, fjs);
        }(document, 'script', 'facebook-jssdk'));
    

        
    

            
                                


	
	  
		  
			  © 2014 Ultimate-Guitar.com or its affiliates. All rights reserved    
			  About |
			  Help |
			  Site Map |
			  Link To Us |
			  TOS |
			  Privacy Policy |
			  Advertise |
			  Contact
		  
	  
	







var artist_id = 1751;
var name_art  = 'corrosion of conformity';

var main_server_name = 'ultimate-guitar.com';





// GA start
  var _gaq = _gaq || [];
  _gaq.push(['_setAccount', 'UA-9160560-1']);
  _gaq.push(['_setDomainName', '.ultimate-guitar.com']);
  _gaq.push(['_trackPageview']);

(function() {
    var ga = document.createElement('script'); ga.type = 'text/javascript'; ga.async = true;
    ga.src = ('https:' == document.location.protocol ? 'https://ssl' : 'http://www') + '.google-analytics.com/ga.js';
    var s = document.getElementsByTagName('script')[0]; s.parentNode.insertBefore(ga, s);
  })();
// GA end

// Begin comScore Tag -->
  COMSCORE.beacon({
    c1:2,
    c2:6745264,
    c3:"",
    c4:document.location,
    c5:"",
    c6:"",
    c15:""
  });
// End comScore Tag

// Yandex.Metrika counter
(function (d, w, c) {
    (w[c] = w[c] || []).push(function() {
        try {
            w.yaCounter18746557 = new Ya.Metrika({id:18746557,
                    webvisor:true,
                    clickmap:true,
                    trackLinks:true,
                    accurateTrackBounce:true});
        } catch(e) { }
    });

var n = d.getElementsByTagName("script")[0],
        s = d.createElement("script"),
        f = function () { n.parentNode.insertBefore(s, n); };
    s.type = "text/javascript";
    s.async = true;
    s.src = (d.location.protocol == "https:" ? "https:" : "http:") + "//mc.yandex.ru/metrika/watch.js";

if (w.opera == "[object Opera]") {
        d.addEventListener("DOMContentLoaded", f, false);
    } else { f(); }
})(document, window, "yandex_metrika_callbacks");
// Yandex.Metrika counter end

// Quantcast Tag
var _qevents = _qevents || [];

(function() {
var elem = document.createElement('script');
elem.src = (document.location.protocol == "https:" ? "https://secure" : "http://edge") + ".quantserve.com/quant.js";
elem.async = true;
elem.type = "text/javascript";
var scpt = document.getElementsByTagName('script')[0];
scpt.parentNode.insertBefore(elem, scpt);
})();

_qevents.push({
qacct:"p-84PgIiyhfAiVo"
});
// End Quantcast tag




  















            
 
 
 
Corrosion Of Conformity - Senor Limpio Tab :: indexed at Ultimate Guitar.
Senor Limpio tabs @ 911Tabs
People who played Corrosion Of Conformity - Senor Limpio Tab also played these songs by Corrosion Of Conformity:
Stare Too Long Chords, Shelter Chords, Stare Too Long Tab, Albatross Tab, In The Arms Of God Tab, Clean My Wounds Tab

Quick tip, so you can enjoy Senor Limpio Tab even more:

After the registration (which takes just 10 seconds, remember?) you will be able to use your profile - your very own piece of YourChords.com.

Show us your talent, perform Senor Limpio Tab!

Here you can post a video or audio performance. Tell me more ...
Where can we find your performance? Tell me more ...
Your comment:
Please, log in to post your performance.