Artists by letter: A B C D E F G H I J K L M N O P Q R S T U V W X Y Z 0-9

 
Stage Whispers Tab
-------------------------------------------------------------------------------
Stage Whispers - Be Bop Deluxe
-------------------------------------------------------------------------------

Tabbed by: axe victim

Leave a message on my  ‘Ultimate Guitar’  profile or comment
here and I’ll get back to you.

Tuning: EADGBe

| /  slide up
|   slide down
| s  very rapid slide, sounds like one note
| h  hammer-on
| p  pull-off
| ~  vibrato or sustain
| +  harmonic
| x  Mute note
| <  pick scrape
| b  bend
| r  relax bend
| pb pre-bend
| ^  quarter tone bend
| (x7678x) chord shape







Intro: Many guitars mixed up, tricky to unravel, so I have tabbed it as one guitar.



___E5______________________________________________________________

e|--------12-------------------------------------------------------|
B|-15b17~---15-12h15p12--12h15p12--12h15p12--12h15p12--12h15p12----|
G|---------------------14--------14--------14--------14--------14--|
D|-----------------------------------------------------------------|
A|-----------------------------------------------------------------|
E|-----------------------------------------------------------------|
  ( Free time... )

___E5____D#5__C#5__________________________________________________

e|-15b17-15~--12------------------------------------------------------|
B|--------------12-15----12-------------------------------------------|
G|--------------------14-12-12---14-12h13--12-------------------------|
D|----------------------------14-14------14--14-12-14p12--12----------|
A|------------------------------------------------------14--1412p10~-|
E|--------------------------------------------------------------------|

___F#5_____________________________________________________________

e|----------------------------------------------------------------------|
B|-----------------------------------------------------------17p16--16--|
G|--------------------------------------------------14h16h18------18----|
D|---------------------12------14--16p14--14---16h18--------------------|
A|---------10-12--12/14---14/16---------16------------------------------|
E|-12p10h12-------------------------------------------------------------|

_______________G#5____________A5________________________C5_________

e|------16h17-19-16-19-16-19-19b21~~~21r19b21r19b21r19~~--19-------|
B|-17h19----------------------------------------------------19b21--|
G|-----------------------------------------------------------------|
D|-----------------------------------------------------------------|
A|-----------------------------------------------------------------|
E|-----------------------------------------------------------------|

___D5______________________________________________________________

e|-----------------------------------------------------------------|
B|-16-17p16--------------------------------------------------------|
G|----------18--16--18p1614--16p1413--14p1311--13p119--11p97--|
D|-----------------------------------------------------------------|
A|-----------------------------------------------------------------|
E|-----------------------------------------------------------------|

___D5______________________________________________________________

e|--------------------------------------------------------------------|
B|--------------------------------------------------------------------|
G|-9p75-4-2--------------------------------------------------------|
D|-------------5--3p2h5--3---p2---------------------------------------|
A|--------------------------------5----p3----p2~~~~~~~~~~~~~~~~~~~~~~-|
E|--------------------------------------------------------------------|



Verse: ( 4/4 time )  " Well I'm... "

___A_______________A/G#_____________F#m_____________E______________
" Waiting in the wings with all the strings and things that help me make the... "
e|--------------------------------|----------------------------------|
B|--------------------------------|----------------------------------|
G|-2---x-x-2---x-x-2---x-x-2------|----------------------------------|
D|-2---x-x-2---x-x-2---x-x-2---x-x--4---x-x-4---x-x-2---x-x-2---x-x--|
A|-0---x-x-0---x-x-x---x-x-x---x-x--4---x-x-4---x-x-2---x-x-2---x-x--|
E|-----------------4-------4---x-x--2---x-x-2---x-x-0---x-x-0---x-x--|

| 1 - & - 2 - & - 3 - & - 4 - & -| 1 - & - 2 - & - 3 - & - 4 - & -|

___D_______________________G/D______D______________________________
 " Music...                                                     Just... "
e|-------------------------3------|-2------------------------------|
B|-3-----------------------3------|-3------------------------------|
G|-2-----------------------2------|-2------------------------------|
D|-0-----------------------0------|-0------------------------------|
A|--------------------------------|---------
 
 
Be Bop Deluxe - Stage Whispers Tab :: indexed at Ultimate Guitar.
Stage Whispers tabs @ 911Tabs

About the artist behind Stage Whispers Tab:

Be Bop Deluxe were an English progressive rock band who achieved critical acclaim and moderate commercial success during the mid to late 1970s.

Indexed at Wikipedia.

Show us your talent, perform Stage Whispers Tab!

Here you can post a video or audio performance. Tell me more ...
Where can we find your performance? Tell me more ...
Your comment:
Please, log in to post your performance.