Artists by letter: A B C D E F G H I J K L M N O P Q R S T U V W X Y Z 0-9

Adventures In A Yorkshire Landscape Tab - Be Bop Deluxe


 
Adventures In A Yorkshire Landscape Tab
-------------------------------------------------------------------------------
Adventures In A Yorkshire Landscape - Be Bop Deluxe
-------------------------------------------------------------------------------

Tabbed by: axe victim

Leave a message on my  ‘Ultimate Guitar’  profile or comment
here and I’ll get back to you.

Tuning: EADGBe

| /  slide up
|   slide down
| s  very rapid slide, sounds like one note
| h  hammer-on
| p  pull-off
| ~  vibrato or sustain
| +  harmonic
| x  Mute note
| PM palm mute
|(13) ghost note
| <  pick scrape
| b  bend
| r  relax bend
| pb pre-bend
| ^  quarter tone bend
|(x7678x) chord shape
|(02:10) time marker
| t = thumb ( fretting hand )
| i = index finger ( fretting hand )
| m = middle finger ( fretting hand )
| r = ring finger ( fretting hand )
| p = pinky  ( fretting hand )



Epic track from the Axe Victim album, featuring the holy grail of guitar solos.
I have tried to tab the Live version of the solo since that's my favourite, from
the Live! In The Air Age recording of course.  The fury of some of these passages is
phenomenal, playing this up to speed is very challenging even for intermediate.
Hopefully I have got it right but there's always more than one way to play any cluster
of notes.  As ever, a work in progress.



( studio version, acoustic guitar as below. Live version is piano only )

Intro: Waltz feel...

___Dm___________________________________Dm9________________________________

e|-5-----------5-------5---5-------5--|-5-----------5-------5---5--------5-|
B|-6-----------6-------6---6-------6--|-5-----------5-------5---5--------5-|
G|-7-----------7-------7---7-------7--|-7-----------7-------7---7--------7-|
D|-7-----------7-------7---7-------7--|-7-----------7-------7---7--------7-|
A|-5-----------5-------5---5-------5--|-5-----------5-------5---5--------5-|
E|------------------------------------|------------------------------------|

| 1 - x - x - 2 - x - x - 3 - x - x -| 1 - x - x - 2 - x - x - 3 - x - x -|

Verse:

___Dm___________________________________Dm9________________________________
 " Bridges                 and          rivers                  and... "

___Dm___________________________________Dm9________________________________
 " buildings pulled down... "

___Bb______________________________________________________________________
 " Time                    spent   in   places                          my... "

___Bb______________________________________________________________________
 " footsteps   had     found... "

___C_______________________________________________________________________
             " Mirrors     in           ballrooms   lie... "

___C_______________________________________________________________________
 " smashed                  on     the  ground...

___Dm______________________________________________________________________
             " Walking     with      November       mists... "

___Dm______________________________________________________________________
                         " Pathways    and         windows... "
e|-------------------------------------------------------------------------|
B|-------------------------------------------------------------------------|
G|-------------------------------------------------------------------------|
D|-------------------------------------------------------------------------|
A|-------------------------------------------------------------------------|
E|-------------------------------------------------------------------------|

___Dm______________________________________________________________________
         " and movies in May... "
e|-------------------------------------------------------------------------|
B|-------------------------------------------------------------------------|
G|--------------------------------------------------5--h7--p5--3-------2--|
D|-------------------------------------------------------------------------|
A|-------------------------------------------------------------------------|
E|-------------------------------------------------------------------------|
                                                    m   p   m  m       i

___Bb______________________________________________________________________
                         " Quiet old ladies who... "
e|-------------------------------------------------------------------------|
B|-------------------------------------------------------------------------|
G|-3~~~~~~~~~~~~~~~~~~~~~~~~~~~~~~~~~--------------------------------------|
D|-------------------------------------------------------------------------|
A|-------------------------------------------------------------------------|
E|-------------------------------------------------------------------------|
   m~~

___Bb______________________________________________________________________
 " soon pass away... "
e|-------------------------------------------------------------------------|
B|-------------------------------------------------------------------------|
G|------------------------------------------------------------------2--h3--|
D|-------------------------------------------------------------------------|
A|-------------------------------------------------------------------------|
E|-------------------------------------------------------------------------|

___C_______________________________________________________________________
                         " Paintings and songs... "
e|-------------------------------------------------------------------------|
B|-------------------------------------------------------------------------|
G|/5~~~~~~~~~~~~~~~~~~~~~~~~~~~~~~~~~~~~~~~~~~~~~~~~~~~~~~~~~~~~~~~~~~~~~~~~~
D|-------------------------------------------------------------------------|
A|-------------------------------------------------------------------------|
E|-------------------------------------------------------------------------|

___C_______________________________________________________________________
             " that I'd done in a day... "
e|-------------------------------------------------------------------------|
B|-------------------------------------------------------------------------|
G|~~~~~~~~~~~~~~~~~~~~~~~~~~~~~~~~~~~~~~~~~~~~~~~~~~3-----------5----------|
D|-------------------------------------------------------------------------|
A|-------------------------------------------------------------------------|
E|-------------------------------------------------------------------------|

___Dm______________________________________________________________________
                               " Going 'round       in          my... "
e|-------------------------------------------------------------------------|
B|-------------------------------------------------------------------------|
G|/7~~~~~~~~~~~~~~~~~~~~~~~~~~~~~~~~~~~~~~~~~~~~~~~~~~~~~~~~~~~~~~~~~~~~~~~~
D|-------------------------------------------------------------------------|
A|-------------------------------------------------------------------------|
E|-------------------------------------------------------------------------|

___C_______________________________________________________________________
 " head... "
e|-------------------------------------------------------------------------|
B|-------------------------------------------------------------------------|
G|~5~~~~~~~~~~~~~~~~~~~~~~~~~~~~~~~~~~~/----------------------------------|
D|-------------------------------------------------------------------------|
A|-------------------------------------------------------------------------|
E|----------------------------------------------------------------------1--|



___G____________________________________F__________________________________
                             " Fires on spires                  and... "
e|-------------------------------------------------------------------------|
B|-------------------------------------------------------------------------|
G|-------------------------------------------------------------------------|
D|-------------------------------------------------------------------------|
A|-5------------------------------------3----------------------------------|
E|-3------------------------------------1----------------------------------|

___C_______________________________________________________________________
 " Chimneys of black... "
e|-------------------------------------------------------------------------|
B|-------------------------------------------------------------------------|
G|-------------------------------------------------------------------------|
D|--------------------------------------------------5-----------7--p5------|
A|-3----------------------------------3/7-------------------------------7--|
E|-------------------------------------------------------------------------|

___G____________________________________F__________________________________
                         " Fields on horizons     with... "
e|-------------------------------------------------------------------------|
B|-------------------------------------------------------------------------|
G|-------------------------------------------------------------------------|
D|-------------------------------------------------------------------------|
A|-5------------------------------------3----------------------------------|
E|-3------------------------------------1----------------------------------|

___C_______________________________________________________________________
 " Pylons that crack... "
e|-------------------------------------------------------------------------|
B|-------------------------------------------------------------------------|
G|--------------------------------------------------------------5----------|
D|--------------------------------------------------5----------------------|
A|-3----------------------------------3/7----------------------------------|
E|-------------------------------------------------------------------------|

___Am______________________________________________________________________
        " With singing              sad wires                   for... "
e|-------------------------------------------------------------------------|
B|-------------------------------------------------------------------------|
G|-7/9~~~~~~~~~~~~~~~~~~~~~~~~~~~~~~~~~~~~~~~~~~~~~~~~~~~~~~~~~~~~~~~~~~~~~~
D|-------------------------------------------------------------------------|
A|-------------------------------------------------------------------------|
E|-------------------------------------------------------------------------|

___Em_________________-____________________________________________________
 " Council house mystics...
e|-------------------------------------------------------------------------|
B|-------------------------------------------------------------------------|
G|~~~~~~~~~~~~~~~~~~~~~~~~~~~~~~~~~~~~~~~~~~~~~~~~~~----------------------|
D|-------------------------------------------------------------------------|
A|-------------------------------------------------------------------------|
E|-------------------------------------------------------------------------|

___D_______________________________________________________________________
 " To apply their statistics                                            and... "
e|-------------------------------------------------------------------------|
B|-------------------------------------------------------------------------|
G|-------------------------------------------------------------------------|
D|-------------------------------------------------------------------------|
A|-------------------------------------------------------------------------|
E|-------------------------------------------------------------------------|

___F#m_____________________________________________________________________
 " read    the tea                     leaves... "
e|-------------------------------------------------------------------------|
B|-------------------------------------------------------------------------|
G|-------------------------------------------------------------------------|
D|-------------------------------------------------------------------------|
A|-------------------------------------------------------------------------|
E|-------------------------------------------------------------------------|



___Bm_(x24432)_____________________________________________________________
 " Time        knows       no           li     -    mits        for... "
e|-------------------------------------------------------------------------|
B|-------------------------------------------------------------------------|
G|-7-----------6-----------4------------7-----------6-----------4----------|
D|-------------------------------------------------------------------------|
A|-------------------------------------------------------------------------|
E|-------------------------------------------------------------------------|

___Bm_________________________________
 " days        such        as... "
e|---------------------------------------|
B|---------------------------------------|
G|-7-----------6-----------4~~~~~~~~~~/9-|
D|---------------------------------------|
A|---------------------------------------|
E|---------------------------------------|



___Cmaj7_(x32000)__________________________________________________________
 " these... "
e|-----------------------------|-------------------------------------------|
B|-12--------------------------|-------------------------------------------|
G|-------12----9---------------|-------------------------------------------|
D|-------------------9---------|-------------------------------------------|
A|-------------------------10--|~~~~~~~~~~~~~~~~~~~~~~~~~~~~~~~~~~~~~~~~~~~~~~~~
E|-----------------------------|-------------------------------------------|



Note sustains for a few bars, then solo begins...

Solo:

___Cmaj7_(x32000)__________________________________________________________
02:00
e|-------------------------------------------------------------------------|
B|-------------8~~~~~~~~~~~~~~~~~~~~~~-------------------------------------|
G|--------------------------------------10------9---7h9p7------------------|
D|----------------------------------------------------------10--9---9h10p9-|
A|-------------------------------------------------------------------------|
E|-------------------------------------------------------------------------|

| 1 - x - x - 2 - x - x - 3 - x - x -| 1 - x - x - 2 - x - x - 3 - x - x -|

__Fmaj7_(x33210)___________________________________________________________

e|-------------------------------------------------------------------------|
B|-------------------------------------------------------------------------|
G|-------------------------------------------------------------------------|
D|-------------------------------------------------------------------------|
A|-10~~~~~~~~~~~~~~~~~~~~~~~~~~~~~~~~~~~~~~~~~~-8---7-------8---7h8p7------|
E|----------------------------------------------------------------------10-|

___Cmaj7_(x32000)__________________________________________________________
                                                                  (  PM & rake )
e|----------------------------------------------------------------------8--|
B|---------------------------------------------------------------------8---|
G|--------------------------------------------------------------------9----|
D|-------------10~~~~~~~~~~~~~~~~~~~~~~~~~~~~~~~~~~~~~~~~~~~~~-------------|
A|-------------------------------------------------------------------------|
E|-8-----------------------------------------------------------------------|

__Fmaj7_(x33210)___________________________________________________________
                                                          ( ghost note )
e|-10~~~~~~~~~~~~~~~~~~~~~~~~~~~~~~~~~~~~~~~~~~~~~~~~~~~~~~~~~~(13)--------|
B|-------------------------------------------------------------------------|
G|-------------------------------------------------------------------------|
D|-------------------------------------------------------------------------|
A|-------------------------------------------------------------------------|
E|-------------------------------------------------------------------------|

___Cmaj7_(x32000)__________________________________________________________

e|---------------------------------12---13----15----13-12h13p12------------|
B|--------------------------------------------------------------15-13p12---|
G|-----------------------------------------------------------------------14-
D|-------------------------------------------------------------------------|
A|-------------------------------------------------------------------------|
E|-------------------------------------------------------------------------|

__Fmaj7_(x33210)___________________________________________________________

e|-------------------------------------------------------------------------|
B|-------------------------13--12h13p12------------------------------------|
G|-12~~~~~~~~~~~~~~~~~~~~~--------------14------12-10-----109-10--h12----|
D|------------------------------------------14---------12------------------|
A|-------------------------------------------------------------------------|
E|-------------------------------------------------------------------------|

___Cmaj7_(x32000)__________________________________________________________

e|-------------------------7-------3---------------------------------------|
B|--------------------------------------5----------------------------------|
G|-9~~~~~~~~~~~~~~~~~~--------------------4------------------------------|
D|----------------------------------------------5--------------------------|
A|--------------------------------------------------7~~~~~~~~~~~~~~~----5--|
E|-------------------------------------------------------------------------|

__Fmaj7_(x33210)___________________________________________________________

e|-------------------------------------------------------------------------|
B|-------------------------------------------------------------------------|
G|-------------------------------------------------------------------------|
D|-------------------------------------------------------------------------|
A|-3~~~~~~~~~~~~~~~~~~~~~~~~~~~~~~~~~~~~~~~~~~~~~~~~~~~~~~~~~~/14----------|
E|-------------------------------------------------------------------------|

___Cmaj7_(x32000)__________________________________________________________
02:23                        ( alternate picking... )
e|-------------------------------------------------------------------------|
B|--------------------------------------------------------------13-15--13-15-
G|---------------------------------------------12-14----12-14-16-----16----|
D|----------------------------12-14----12-14-15------15--------------------|
A|-----------12-14----12-14-15------15-------------------------------------|
E|------(15)-------15------------------------------------------------------|

__Fmaj7_(x33210)___________________________________________________________

e|----13----13--/15-----------------------------15-/17----17-19/20--19-----|
B|-17----17-----------17-18-17h18p17p15p0-17-18--------20--------------20~~~~
G|-------------------------------------------------------------------------|
D|-------------------------------------------------------------------------|
A|-------------------------------------------------------------------------|
E|-------------------------------------------------------------------------|

___Cmaj7_(x32000)__________________________________________________________
02:29                                    (     big vibrato     )
e|-------------------------------------------------------------------------|
B|-------------------------------------------------------------------------|
G|-------------19b21~~~~~~~~~~~~~~~~r17h19~~~~~~~~~~~~~~~~~~~~~19^-17------|
D|--------------------------------------------------------------------19---|
A|-------------------------------------------------------------------------|
E|-------------------------------------------------------------------------|

__Fmaj7_(x33210)___________________________________________________________
                      ( ^ = slight or quarter-tone bend... )
e|-------------17----------------------------------------------------------|
B|---------17-----17--20----17---------------------------------------------|
G|-19^-------------------19---19^r19p17-19~~~~~~~~~~17h19p17---------------|
D|-----------------------------------------------------------19~~~~~~~----|
A|-------------------------------------------------------------------------|
E|-------------------------------------------------------------------------|

___Cmaj7_(x32000)__________________________________________________________
02:35
e|---------------------8h10h12-------8h10h12-------8h10h12-------8h10--8---|
B|--------------8h10h12-------8h10h12-------8h10h12-------8h10h12----12--12-
G|-------------------------------------------------------------------------|
D|-------------------------------------------------------------------------|
A|-------------------------------------------------------------------------|
E|-------------------------------------------------------------------------|

__Fmaj7_(x33210)___________________________________________________________
                         ( alternate picking... )
e|-------------------------------------------------------------------------|
B|-10-8--------------------------------------------------------------------|
G|------10-12-10-9---------------------------------------------------------|
D|-----------------12-10-12-14-10-12-10-9-------------------------9~~~~~~~~~
A|---------------------------------------12-10-12-10-8----8-10-12----------|
E|-----------------------------------------------------12------------------|

___Cmaj7_(x32000)__________________________________________________________
                  ( s = slur, very rapid slide, sounds like one note... )
e|-------------------------------------------------------------------------|
B|-------------------------------------------------------------------------|
G|---------------------------------7---5----------------------------------|
D|~~~~~~~~~~~~~~~~~~~~~~~~~10-------------------7---5----------------------|
A|---------------------------------------------------------7s5----------3--|
E|-------------------------------------------------------------------------|

| 1 - x - x - 2 - x - x - 3 - x - x -| 1 - x - x - 2 - x - x - 3 - x - x -|

__Fmaj7_(x33210)___________________________________________________________

e|-------------------------------------------------------------------------|
B|-------------------------------------------------------------------------|
G|-------------------------------------------------------------------------|
D|-------------------------------------------------------------------------|
A|-5~~~~~~~~~~~~~~~~~~~~~~~~~~~~~~~~~~~~~~~~~~~~~~~~~~~~~~~~--------------|
E|-------------------------------------------------------------------------|

( Below: t = thumb; i = index finger; m = middle finger; r = ring finger; p = pinky )

___Cmaj7_(x32000)__________________________________________________________
02:47
e|-------------------------------------------------------------------------|
B|-------------------------------------------------------------------------|
G|-------------------------------------------------------------------------|
D|--------------------------------------5~~~~~~~~~~~~~~~~~~~~~~~~~~~~~~~~~~~
A|-------------------------------------------------------------------------|
E|---------3---3-------3---3-------3---------------------------------------|
           t   t       t   t       t    i

__Fmaj7_(x33210)___________________________________________________________

e|-------------------------------------------------------------------------|
B|-------------------------------------------------------------------------|
G|-------------------------------------------------------------------------|
D|--------------------------------------5~~~~~~/7~~5~~~~~~~~~~~~~~~~~~~~~~~
A|-------------------------------------------------------------------------|
E|---------3---3-------3---3-------3---------------------------------------|
           t   t       t   t       t    i

___Cmaj7_(x32000)__________________________________________________________

e|-------------------------------------------------------------------------|
B|-------------------------------------------------------------------------|
G|-------------------------------------------------------------------------|
D|--------------------------------------5-------/7----------7--/9----------|
A|--------------------------------------------------10------------------12-|
E|---------3-----------3-----------3---------------------------------------|
           t           t           t    i           r       i           m

__Fmaj7_(x33210)___________________________________________________________
  (                    alternate picking...                     )
e|-----------------------------------------------------------12h13-12h13h15-
B|---------------------------------------12-13-15-13-12-13-15--------------|
G|---------------------10-12-14--10-12-14----------------------------------|
D|---10-12-14--10-12-14----------------------------------------------------|
A|-14----------------------------------------------------------------------|
E|-------------------------------------------------------------------------|



___Cmaj7_(x32000)__________________________________________________________
02:58
e|-12h15p12-------------------------------------------------15-------------|
B|---------13---------------------15b17~~~~~~~~~~~~~~~~~~~~~----15b17~~~~~~~~
G|-----------12~~~~~~~~~~~~~~~~~~~-----------------------------------------|
D|-------------------------------------------------------------------------|
A|-------------------------------------------------------------------------|
E|-------------------------------------------------------------------------|

__Fmaj7_(x33210)___________________________________________________________

e|-15-------------------------------------------15--13--12h13p12-----------|
B|~~~~~~~~~17~r15~~~~~~13--12h13p12-----------------------------15------13-|
G|----------------------------------14--12---------------------------------|
D|-------------------------------------------------------------------------|
A|-------------------------------------------------------------------------|
E|-------------------------------------------------------------------------|

___Cmaj7_(x32000)__________________________________________________________
03:04
e|-15----13----12h13p12----------------------------------------------------|
B|----------------------15-13p12----12----h13-12h3p12----------------------|
G|-------------------------------14------------------14-16-12-14--1210----|
D|--------------------------------------------------------------14-----12--|
A|-------------------------------------------------------------------------|
E|-------------------------------------------------------------------------|

__Fmaj7_(x33210)___________________________________________________________

e|-------------------------------------------------------------------------|
B|------------------------------------------------------8~~----------------|
G|-10p9-10-9-10p9---9-------------------9h10p9---9---7h9~~~-----9b10r9b10r9-
D|---------------12----12p10p9---9h10h12------12---------------------------|
A|----------------------------12-------------------------------------------|
E|-------------------------------------------------------------------------|

___Cmaj7_(x32000)_________________________________________________________________
03:10
e|--------------------------------------------------------------------------------|
B|--------------------------------------------------------------------------------|
G|9h10h12-9h10h12-9h10h12-9h10h12-9h10h12-9h10h12-9h10h12-9h10h12-9h10h12-9h10h12~~
D|--------------------------------------------------------------------------------|
A|--------------------------------------------------------------------------------|
E|--------------------------------------------------------------------------------|

__Fmaj7_(x33210)___________________________________________________________
03:14
e|-------------------------------------------------------------------------|
B|---------------------------------------------------------12h13-12h13p12--|
G|---------10--9h10p9---------------------------12/14--------------------14-
D|--------------------12---------------------------------------------------|
A|-------------------------12-p10------------------------------------------|
E|-------------------------------------------------------------------------|

___Cmaj7_(x32000)__________________________________________________________

e|---------15b17~~~~~~~~~~~15~~~~~~~~~~~13------12h13p12--------15------13-|
B|-------------------------------------------------------15-13-------------|
G|-12----------------------------------------------------------------------|
D|-------------------------------------------------------------------------|
A|-------------------------------------------------------------------------|
E|-------------------------------------------------------------------------|

__Fmaj7_(x33210)___________________________________________________________

e|-12h13p12----------------------------------------------------------------|
B|---------15--13------12h13p12----12--------------------------------------|
G|------------------------------14------14~~~~~~~~~~~~~~~~~2~~~/14-------|
D|-------------------------------------------------------------------------|
A|-------------------------------------------------------------------------|
E|-------------------------------------------------------------------------|

___Cmaj7_(x32000)__________________________________________________________
                          ( alternate picking... )
e|-------------------------------------------------------------------------|
B|---------------------------------------------------------13-15----13-15-17-
G|---------------------------------------12-15----12-14-16-------16--------|
D|---------------------12-14----12-14-15-------15--------------------------|
A|----12-14---12-14-15-------15--------------------------------------------|
E|-15------15--------------------------------------------------------------|

__Fmaj7_(x33210)___________________________________________________________

e|-13------13--15-------15--/17--15--17---20--------19---------------------|
B|-----17----------17---------------------------------------20~~-----------|
G|-------------------------------------------------------------------19b21~~
D|-------------------------------------------------------------------------|
A|-------------------------------------------------------------------------|
E|-------------------------------------------------------------------------|

___Cmaj7_(x32000)__________________________________________________________

e|-------------------------20~~~~~~~~~~~------------------------20---------|
B|-20b22~~~~~~r20~~~~~b22~~-------------20b22~~~~~~~~~~~~~~~~~~~-------22~~~
G|-------------------------------------------------------------------------|
D|-------------------------------------------------------------------------|
A|-------------------------------------------------------------------------|
E|-------------------------------------------------------------------------|

__Fmaj7_(x33210)___________________________________________________________

e|-------------------------------------------------------------------------|
B|r20~~~~~~17--------------------------------------------------------------|
G|-------------19b21r19-17-19~~~~~~~~-------------------------------------|
D|--------------------------------------/----------------------------------|
A|--------------------------------------/----------------------------------|
E|-------------------------------------------------------------------------|

___Cmaj7_(x32000)__________________________________________________________
03:34
e|-20b22~~~~~~~~~~~~~~~~~~~20~~~~~~~~~~~17---------------------------------|
B|----------------------------------------------20b22~~~~~~~~~~~/---------|
G|-------------------------------------------------------------------------|
D|-------------------------------------------------------------------------|
A|-------------------------------------------------------------------------|
E|-------------------------------------------------------------------------|

__Fmaj7_(x33210)___________________________________________________________

e|-------------20b22~~~~~~~20~~17-------17h20p17----20---------------------|
B|----------------------------------------------20----------20b22~~~~~~~/-|
G|-------------------------------------------------------------------------|
D|-------------------------------------------------------------------------|
A|-------------------------------------------------------------------------|
E|-------------------------------------------------------------------------|

___Cmaj7_(x32000)__________________________________________________________

e|-------------20b22~~~~~~~20~~~~~~~~~~~17-h20-p17----17-------------------|
B|-------------------------------------------------20----20---17-----------|
G|----------------------------------------------------------19--19b21r19-17-
D|-------------------------------------------------------------------------|
A|-------------------------------------------------------------------------|
E|-------------------------------------------------------------------------|

__Fmaj7_(x33210)___________________________________________________________

e|-------------------------------------------------------------------------|
B|-------------------------------------------------------------------------|
G|-19~~~~~~~~~~17h19p17----19--17------------------------------------------|
D|---------------------19----------19---17---------------------------------|
A|------------------------------------------19--18--17~~~~~~~~~~----------|
E|-------------------------------------------------------------------------|

___Cmaj7_(x32000)__________________________________________________________
03:46
e|-------------------------------------------------------------------------|
B|-------17----17----17----17--18--20---17--18--20--17--18--20--17--18--20-|
G|-0-----------------------------------------------------------------------|
D|-------------------------------------------------------------------------|
A|-------------------------------------------------------------------------|
E|-------------------------------------------------------------------------|

| 1 - x - x - 2 - x - x - 3 - x - x -| 1 - x - x - 2 - x - x - 3 - x - x -|



__Fmaj7_(x33210)___________________________________________________________

e|-----------------------------------------------------17h18p17------------------|
B|17-18-20-17h18h20-17h18h20-17h18h20-17-17-17-17h18h20-------20-18-17-----------|
G|--------------------------------------------------------------------19-21-19-17-
D|-------------------------------------------------------------------------------|
A|-------------------------------------------------------------------------------|
E|-------------------------------------------------------------------------------|

___Cmaj7_(x32000)__________________________________________________________

e|-------------------------------------------------------------------------|
B|-------------------------------------------------------------------------|
G|-21-17-19----1716-17p16----16----------------------16-19~~~~~-------0--|
D|----------19-------------17----19p18p16----16h18h19----------------------|
A|----------------------------------------19-------------------------------|
E|-------------------------------------------------------------------------|

__Fmaj7_(x33210)___________________________________________________________

e|-12------------------------------------------------------------------------|
B|----15-13-12---------------------------------------------------------------|
G|-------------14-12-10------------------------------------------------------|
D|----------------------14-12-10-12-10---------------------------------------|
A|-------------------------------------14-12-10-12-10------------------------|
E|-----------------------------------------------------13-12--10--12--13/15-|

| 1 - x - x - 2 - x - x - 3 - x - x -| 1 - x - x - 2 - x - x - 3 - x - x -|

Guitar Solo ends. To be continued...

Words & Music by Bill Nelson
                                                                                            
                        
                        
                        
                                                    Learn to play "Be Bop Deluxe" with online video lessons

                        
                                                    
                                UG plus: remove banner
                                                                    
                                    
                                    
                                                            
                                                

                    

                
                
                
                    
                        comments
                    
                                            
                            We did not receive enough feedback on this tab! Please rate:
                        
                                        
                        print report bad tab
                    
                                            
                                                            1
                                                            2
                                                            3
                                                            4
                                                            5
                                                    
                                    
                
                                    
                
                    
                         
    
        
        
            
            
                I want to post
            
            
                 comment
            
            
                or
            
            
                 correction
            
            
                [tab]
            
        
        
              
            guest
                
            
                
                    
                        
                        
                            
                                                            
                                    You may want to rate the tab now too:
                                    
                                        
                                            
                                            
                                                select rating
                                            
                                        
                                        
                                                                                            
                                                                                            
                                                                                            
                                                                                            
                                                                                            
                                                                                    
                                    
                                
                                                    
                    
                
                
                    
                                                Please do not post tabs as comments. Select "correction" instead!
                        
                    
                
            
        
        
        
        
        
    
                    
                

            
        
            







    
        var current_rating       = 0;
        var current_rating_count = 0;
        var tabid                = 1427422;
        var ug_serv              = ".ultimate-guitar.com";
        var tabs_user_id         = 850097;
        var transpose_to         = 0;
        var has_ad_free          = '0';

        
                    var ga_preffix = 'Text tabs ';
            $('.etp_banner .close_etp').click(function(){
                $(this).parents('.etp_banner').css('height', 0).removeClass('open');
                return false;
            });

            $('.etp_banner .buybtn').click(function(){
                $('.etp_banner').css('height', 0).removeClass('open');
            });

                    
        

        (function(d, s, id) {
          var js, fjs = d.getElementsByTagName(s)[0];
          if (d.getElementById(id)) return;
          js = d.createElement(s); js.id = id;
          js.src = "//connect.facebook.net/en_GB/all.js#xfbml=1&appId=539490962762175";
          fjs.parentNode.insertBefore(js, fjs);
        }(document, 'script', 'facebook-jssdk'));

    

        
    

            
                


	
	  
		  
			  © 2013 Ultimate-Guitar.com or its affiliates. All rights reserved    
			  About |
			  Help |
			  Site Map |
			  Link To Us |
			  TOS |
			  Privacy Policy |
			  Advertise |
			  Contact
		  
	  
	





var artist_id = 8988;
var name_art  = 'be bop deluxe';

var main_server_name = 'ultimate-guitar.com';




var _gaq = _gaq || [];
  _gaq.push(['_setAccount', 'UA-9160560-1']);
  _gaq.push(['_setDomainName', '.ultimate-guitar.com']);
  _gaq.push(['_trackPageview']);

(function() {
    var ga = document.createElement('script'); ga.type = 'text/javascript'; ga.async = true;
    ga.src = ('https:' == document.location.protocol ? 'https://ssl' : 'http://www') + '.google-analytics.com/ga.js';
    var s = document.getElementsByTagName('script')[0]; s.parentNode.insertBefore(ga, s);
  })();




    document.write(unescape("%3Cscript src='" + (document.location.protocol == "https:" ?
"https://sb" : "http://b") + ".scorecardresearch.com/beacon.js' %3E%3C/script%3E"));


  COMSCORE.beacon({
    c1:2,
    c2:6745264,
    c3:"",
    c4:document.location,
    c5:"",
    c6:"",
    c15:""
  });


  





(function (d, w, c) {
    (w[c] = w[c] || []).push(function() {
        try {
            w.yaCounter18746557 = new Ya.Metrika({id:18746557,
                    webvisor:true,
                    clickmap:true,
                    trackLinks:true,
                    accurateTrackBounce:true});
        } catch(e) { }
    });

var n = d.getElementsByTagName("script")[0],
        s = d.createElement("script"),
        f = function () { n.parentNode.insertBefore(s, n); };
    s.type = "text/javascript";
    s.async = true;
    s.src = (d.location.protocol == "https:" ? "https:" : "http:") + "//mc.yandex.ru/metrika/watch.js";

if (w.opera == "[object Opera]") {
        d.addEventListener("DOMContentLoaded", f, false);
    } else { f(); }
})(document, window, "yandex_metrika_callbacks");



.

$(document).ready(function(){abd_event()});function abd_event(){0==$(".yahooAd").height()?_gaq.push(["_trackEvent","AdBlock","AdBlock detection test","With AdBlock",1,true]):_gaq.push(["_trackEvent","AdBlock","AdBlock detection test","Without AdBlock",1,true])};


            
 
 
 
Be Bop Deluxe - Adventures In A Yorkshire Landscape Tab :: indexed at Ultimate Guitar.
Adventures In A Yorkshire Landscape tabs @ 911Tabs
People who played Be Bop Deluxe - Adventures In A Yorkshire Landscape Tab also played these songs by Be Bop Deluxe:
Panic In The World Tab, Sister Seagull Tab, Crying To The Sky Tab, Ships In The Night Tab, Maid In Heaven Tab, Down On Terminal Street Tab

About the artist behind Adventures In A Yorkshire Landscape Tab:

Be Bop Deluxe were an English progressive rock band who achieved critical acclaim and moderate commercial success during the mid to late 1970s.

Indexed at Wikipedia.

Show us your talent, perform Adventures In A Yorkshire Landscape Tab!

Here you can post a video or audio performance. Tell me more ...
Where can we find your performance? Tell me more ...
Your comment:
Please, log in to post your performance.