Artists by letter: A B C D E F G H I J K L M N O P Q R S T U V W X Y Z 0-9

 
Rome Is Falling Tab
-----------------------------------------------------------------
Rome is Falling - Civil War
-----------------------------------------------------------------
Tabbed by:David McMillan		
Email:[email protected]

Tuning: Standard

Listen to the song for rhythm, palm muting and pick articulation.

Structure

Intro x2
Verse x2
Pre Chorus x1
Chorus x 2
Verse x2
Pre Chorus x1
Chorus x2
Solo x1
Chorus x6
Outro x1

Legend

| /  slide up
|   slide down
| h  hammer-on
| p  pull-off
| ~  vibrato
| +  harmonic
| x  Mute note

Intro

e|------------|
B|------------|
G|------------|
D|-5----4-----|
A|-5----5-----|
E|-3----2-----|

Guitar 1

e|-----------------------------------|
B|-----------------------------------|                              
G|-----------------------------------|
D|-----------------------------------|
A|-2-2-2-2--2-2-2--2-2-2--222-2------|
E|-0-0-0-0--0-0-0--0-0-0--000-0------|

e|-----------------------------------|
B|-----------------------------------|
G|-----------------------------------|
D|-----------------------------------|
A|-2-2-2-2--2-2-2--2-2-2--222-2------|
E|-0-0-0-0--0-0-0--0-0-0--000-0------|

e|---------------------------------------------------------------|
B|---------------------------------------------------------------|
G|---------------------------------------------------------------|
D|-5-5-5-5--5-5-5--5-5-5--555-5----------------------------------|
A|-3-3-3-3--3-3-3--3-3-3--333-3------5-----5---5-----5-----5---5-|       
E|-------------------------------3-3-3-3-3-3-3-3-2-2-2-2-2-2-2-2-|

Guitar 2

e|-----------------------------------|
B|-----------------------------------|                              
G|-----------------------------------|
D|-----------------------------------|
A|-2-2-2-2--2-2-2--2-2-2--222-2------|
E|-0-0-0-0--0-0-0--0-0-0--000-0------|

e|-----------------------------------|
B|-----------------------------------|
G|-----------------------------------|
D|-----------------------------------|
A|-2-2-2-2--2-2-2--2-2-2--222-2------|
E|-0-0-0-0--0-0-0--0-0-0--000-0------|

e|---------------------------------------------------------------|
B|---------------------------------------------------------------|
G|-----------------------------------7----7---7-----7-----7---7--|
D|-5-5-5-5--5-5-5--5-5-5--555-5--5-5--5-5---5---4-4---4-4---4----|
A|-3-3-3-3--3-3-3--3-3-3--333-3----------------------------------|       
E|---------------------------------------------------------------|

Verse

Guitar 1

e|-----------------------------------------------------------------|
B|-----------------------------------------------------------------|
G|-----------------------------------------------------------------|
D|-----------------------------------------------------------------|
A|-5h7---7---------5h7---7---------5h7---7---------5h7---7---------|
E|-----0---0-0-0-0-----0---0-0-0-0-----0---0-0-0-0-----0---0-0-0-0-|

e|-----------------------------------------------------------------|
B|-----------------------------------------------------------------|
G|-------------------------------------7----7---7-----7-----7---7--|
D|-4h5---5---------4h5---5---------5-5--5-5---5---4-4---4-4---4----|
A|-----3---3-3-3-3-----3---3-3-3-3---------------------------------|
E|-----------------------------------------------------------------|

Guitar 2

e|-----------------------------------------------------------------|
B|-----------------------------------------------------------------|
G|-----------------------------------------------------------------|
D|---------------------------------4h5---5---------4h5---5---------|
A|-5h7---7---------5h7---7-----------------------------------------|
E|-----0---0-0-0-0-----0---0-0-0-0-----0---0-0-0-0-----0---0-0-0-0-|

e|-----------------------------------------------------------------|
B|-----------------------------------------------------------------|
G|-2h4---4---------2h4---4-------------7----7---7-----7-----7---7--|
D|---------------------------------5-5--5-5---5---4-4---4-4---4----|
A|-----3---3-3-3-3-----3---3-3-3-3---------------------------------|
E|-----------------------------------------------------------------|

Pre Chorus

e|---------------------0-------------------------------------------|
B|---------------------0-------------------------------------------|
G|-5---------7---------x-------------------------------------------|
D|-5---------7---------2-------------------------------------------|
A|-3---------5---------2-------------------------------------------|
E|---------------------0-------------------------------------------|

e|-----------------------------------------------------------------|
B|-----------------------------------------------------------------|
G|-5---------7---------4-------------------------------------------|
D|-5---------7---------4---------5-5-5-5-7-7-7-7-------------------|
A|-3---------5---------2---------3-3-3-3-5-5-5-5-------------------|
E|-----------------------------------------------------------------|

Chorus

Guitar 1

e|-----------------------------------|
B|-----------------------------------|                              
G|-----------------------------------|
D|-----------------------------------|
A|-2-2-2-2--2-2-2--2-2-2--222-2------|
E|-0-0-0-0--0-0-0--0-0-0--000-0------|

e|-----------------------------------|
B|-----------------------------------|
G|-----------------------------------|
D|-----------------------------------|
A|-2-2-2-2--2-2-2--2-2-2--222-2------|
E|-0-0-0-0--0-0-0--0-0-0--000-0------|

e|---------------------------------------------------------------|
B|---------------------------------------------------------------|
G|---------------------------------------------------------------|
D|-5-5-5-5--5-5-5--5-5-5--555-5----------------------------------|
A|-3-3-3-3--3-3-3--3-3-3--333-3------5-----5---5-----5-----5---5-|       
E|-------------------------------3-3-3-3-3-3-3-3-2-2-2-2-2-2-2-2-|

Guitar 2

e|-----------------------------------|
B|-----------------------------------|                              
G|-----------------------------------|
D|-----------------------------------|
A|-2-2-2-2--2-2-2--2-2-2--222-2------|
E|-0-0-0-0--0-0-0--0-0-0--000-0------|

e|-----------------------------------|
B|-----------------------------------|
G|-----------------------------------|
D|-----------------------------------|
A|-2-2-2-2--2-2-2--2-2-2--222-2------|
E|-0-0-0-0--0-0-0--0-0-0--000-0------|

e|---------------------------------------------------------------|
B|---------------------------------------------------------------|
G|-----------------------------------7----7---7-----7-----7---7--|
D|-5-5-5-5--5-5-5--5-5-5--555-5--5-5--5-5---5---4-4---4-4---4----|
A|-3-3-3-3--3-3-3--3-3-3--333-3----------------------------------|       
E|---------------------------------------------------------------|

Solo

Guitar 1

e|---------------------------------------------------------------|  {
B|---------------------------------------------------------------|
G|---------9-----11-----12-----11-----9~-------------------------|
D|-----------9-9----9-9----9-9----9-9----------------------------|   
A|---------------------------------------------------------------|
E|-17-----------------------------------------------------------|

e|---------------------------------------------------------------|
B|---------------------------------------------------------------|
G|---9-----11-----12-----11-----9~-------------------------------|
D|-----9-9----9-9----9-9----9-9----------------------------------|
A|---------------------------------------------------------------|
E|---------------------------------------------------------------|
                                                                          ---- Play twice
e|---------------------------------------------------------------|
B|---------------------------------------------------------------|
G|---9-----11-----12-----11-----9~-------------------------------|
D|-----9-9----9-9----9-9----9-9----------------------------------|
A|---------------------------------------------------------------|
E|---------------------------------------------------------------|

e|---------------------------------------------------------------|
B|---------------------------------------------------------------|
G|---8-----9-----11-----9-----8~---------------------------------|
D|-----9-9---9-9----9-9---9-9------------------------------------|
A|---------------------------------------------------------------| 
e|---------------------------------------------------------------|  }

e|---------------------------------------------------------------|
B|---------------------------------------------------------------|
G|-/9~--11-12~--12-11--12p11/9~----/9-/11-12-11-9-11-9h11p9-8~---|
D|---------------------------------------------------------------|
A|---------------------------------------------------------------|
E|---------------------------------------------------------------|

e|---------------------------------------------------------------|
B|---------------------10----------------------------------------|
G|-9-----11-----12------------12---11----------------------------|
D|---9-9----9-9----9-9----9-9----9----9--------------------------|
A|---------------------------------------------------------------|
E|---------------------------------------------------------------|

e|---------------------------------------------------------------|
B|---------------------10----------------------------------------|
G|-9-----11-----12------------12---11~---------------------------|
D|---9-9----9-9----9-9----9-9----9-------------------------------|
A|---------------------------------------------------------------|
E|---------------------------------------------------------------|

e|---------------------------------------------------------------|
B|---------------------10----------------------------------------|
G|-9-----11-----12------------12---11----9~------8~--------------|
D|---9-9----9-9----9-9----9-9----9----9--------------------------|
A|---------------------------------------------------------------|
E|---------------------------------------------------------------|

Guitar 2

e|---------------------------------------------------------------|
B|----------10-----12-----10-------------------------------------|
G|---12-9-9----9-9----9-9----9-9-12~-----------------------------|   --- Play three times
D|---------------------------------------------------------------|
A|---------------------------------------------------------------|
E|---------------------------------------------------------------|

e|---------------------------------------------------------------|
B|----------8-----10-----8---------------------------------------|
G|---11-8-8---8-8----8-8---8-8-11~-------------------------------|
D|---------------------------------------------------------------|
A|---------------------------------------------------------------|
E|---------------------------------------------------------------|

e|---------------------------------------------------------------|
B|-/8~--10-12~--12-10--12p10/8~----/8-10-/12-10-8-10-8h10p8-7~---|
G|---------------------------------------------------------------|
D|---------------------------------------------------------------|
A|---------------------------------------------------------------|
E|---------------------------------------------------------------|

e|---------------------------------------------------------------|
B|--------10----12-----13-----12---10----------------------------|
G|-12-9-9---9-9----9-9----9-9----9----9--------------------------|
D|---------------------------------------------------------------|
A|---------------------------------------------------------------|
E|---------------------------------------------------------------|

e|---------------------------------------------------------------|
B|--------10----12-----13-----12---10~---------------------------|
G|-12-9-9---9-9----9-9----9-9----9-------------------------------|
D|---------------------------------------------------------------|
A|---------------------------------------------------------------|
E|---------------------------------------------------------------|

e|---------------------------------------------------------------|
B|--------10----12-----13-----12---10----------------------------|
G|-12-9-9---9-9----9-9----9-9----9----9--12~------11~------------|
D|---------------------------------------------------------------|
A|---------------------------------------------------------------|
E|---------------------------------------------------------------|

Outro

e|---------------------------------------------------------------|
B|---------------------------------------------------------------|
G|---------------------------------------------------------------|
D|---------------------------------------------------------------|
A|-2-2-2-2--222-2------------------------------------------------|
E|-0-0-0-0--000-0------------------------------------------------|
                                                                
                        
                        
                        
                                                    Can't play "Rome Is Falling"? Improve your playing via easy step-by-step video lessons!
    

                        
                                                    
                                UG plus: remove banner
                                                                    
                                    
                                    
                                                            
                                                

                    

                
                
                
                    
                        comments
                    
                                            
                            We did not receive enough feedback on this tab! Please rate:
                        
                                        
                        print report bad tab
                    
                                            
                                                            1
                                                            2
                                                            3
                                                            4
                                                            5
                                                    
                                    
                
                                    
                
                    
                         
    
        
        
            
            
                I want to post
            
            
                 comment
            
            
                or
            
            
                 correction
            
            
                [tab]
            
        
        
              
            guest
                
            
                
                    
                        
                        
                            
                                                            
                                    You may want to rate the tab now too:
                                    
                                        
                                            
                                            
                                                select rating
                                            
                                        
                                        
                                                                                            
                                                                                            
                                                                                            
                                                                                            
                                                                                            
                                                                                    
                                    
                                
                                                    
                    
                
                
                    
                                                Please do not post tabs as comments. Select "correction" instead!
                        
                    
                
            
        
        
        
        
        
    
                    
                

            
        
            







    
        var current_rating       = 0;
        var current_rating_count = 0;
        var tabid                = 1409681;
        var ug_serv              = ".ultimate-guitar.com";
        var tabs_user_id         = 4540544;
        var transpose_to         = 0;
        var has_ad_free          = '0';

        
                    var ga_preffix = 'Text tabs ';
            $('.etp_banner .close_etp').click(function(){
                $(this).parents('.etp_banner').css('height', 0).removeClass('open');
                return false;
            });

            $('.etp_banner .buybtn').click(function(){
                $('.etp_banner').css('height', 0).removeClass('open');
            });

                    
            

        
    

            
                


	
	  
		  
			  © 2013 Ultimate-Guitar.com or its affiliates. All rights reserved    
			  About |
			  Help |
			  Site Map |
			  Link To Us |
			  TOS |
			  Privacy Policy |
			  Advertise |
			  Contact
		  
	  
	





var artist_id = 39531;
var name_art  = 'civil war';

var main_server_name = 'ultimate-guitar.com';




var _gaq = _gaq || [];
  _gaq.push(['_setAccount', 'UA-9160560-1']);
  _gaq.push(['_setDomainName', '.ultimate-guitar.com']);
  _gaq.push(['_trackPageview']);

(function() {
    var ga = document.createElement('script'); ga.type = 'text/javascript'; ga.async = true;
    ga.src = ('https:' == document.location.protocol ? 'https://ssl' : 'http://www') + '.google-analytics.com/ga.js';
    var s = document.getElementsByTagName('script')[0]; s.parentNode.insertBefore(ga, s);
  })();




    document.write(unescape("%3Cscript src='" + (document.location.protocol == "https:" ?
"https://sb" : "http://b") + ".scorecardresearch.com/beacon.js' %3E%3C/script%3E"));


  COMSCORE.beacon({
    c1:2,
    c2:6745264,
    c3:"",
    c4:document.location,
    c5:"",
    c6:"",
    c15:""
  });


  





(function (d, w, c) {
    (w[c] = w[c] || []).push(function() {
        try {
            w.yaCounter18746557 = new Ya.Metrika({id:18746557,
                    webvisor:true,
                    clickmap:true,
                    trackLinks:true,
                    accurateTrackBounce:true});
        } catch(e) { }
    });

var n = d.getElementsByTagName("script")[0],
        s = d.createElement("script"),
        f = function () { n.parentNode.insertBefore(s, n); };
    s.type = "text/javascript";
    s.async = true;
    s.src = (d.location.protocol == "https:" ? "https:" : "http:") + "//mc.yandex.ru/metrika/watch.js";

if (w.opera == "[object Opera]") {
        d.addEventListener("DOMContentLoaded", f, false);
    } else { f(); }
})(document, window, "yandex_metrika_callbacks");



.

$(document).ready(function(){abd_event()});function abd_event(){0==$(".yahooAd").height()?_gaq.push(["_trackEvent","AdBlock","AdBlock detection test","With AdBlock"]):_gaq.push(["_trackEvent","AdBlock","AdBlock detection test","Without AdBlock"])};


            
 
 
 
Civil War - Rome Is Falling Tab :: indexed at Ultimate Guitar.
Rome Is Falling tabs @ 911Tabs
People who played Civil War - Rome Is Falling Tab also played these songs by Civil War:
Her Bright Smile Haunts Me Still Chords, Rome Is Falling Chords, Her Bright Smile Haunts Me Still, Rome Is Falling

Quick tip, so you can enjoy Rome Is Falling Tab even more:

After the registration (which takes just 10 seconds, remember?) you will be able to use your profile - your very own piece of YourChords.com.

Show us your talent, perform Rome Is Falling Tab!

Here you can post a video or audio performance. Tell me more ...
Where can we find your performance? Tell me more ...
Your comment:
Please, log in to post your performance.