Artists by letter: A B C D E F G H I J K L M N O P Q R S T U V W X Y Z 0-9

 
Just A Habit Tab
Standard Tuning

[0:00]-[0:43]
|----------------------------------------------|
|--------------------5-------------5--5--5--5--|
|--6--6--6--9--6--6-----6----7--6--4--4--4--4--|
|--7--7--7--9--7--7--7--7----7--7--2--2--2--2--|
|--4--4--4--7--4--4--4--4----5--4--2--2--2--2--|
|----------------------------------------------|
|
|---------------------------------------------------------------------|
|----------------------------------5--5--5--5--------5-5-5-5-5-5-5-5--|
|--6--6--6--9--6--6--6--6----7--6--4--4--4--4--7--6--4-4-4-4-4-4-4-4--|
|--7--7--7--9--7--7--7--7----7--7--2--2--2--2--7--7--2-2-2-2-2-2-2-2--|
|--4--4--4--7--4--4--4--4----5--4--2--2--2--2--5--4--2-2-2-2-2-2-2-2--|
|---------------------------------------------------------------------|

[0:43]-[1:19]
|------------------------------------------|
|------------------------------------------|
|--7-7--7-7--6-6--4-4--7-7--7-7--6-6--4-4--|
|--7-7--7-7--7-7--2-2--7-7--7-7--7-7--2-2--|
|--5-5--5-5--4-4--2-2--5-5--5-5--4-4--2-2--|
|------------------------------------------|
|
|------------------------------------------|
|------------------------------------------|
|--7-7--6-6--4-4--4-4--7-7--7-7--6-6--4-4--|
|--7-7--7-7--2-2--2-2--7-7--7-7--7-7--2-2--|
|--5-5--4-4--2-2--2-2--5-5--5-5--0-0--2-2--|
|------------------------------------------|

[1:19]-[2:01]
|----------------------------------------------|
|-----------------5-----5----------5--5--5--5--|
|--6--6--6--9--6-----6-------7--6--4--4--4--4--|
|--7--7--7--9--7--7--7--7----7--7--2--2--2--2--|
|--4--4--4--7--4--4--4--4----5--4--2--2--2--2--|
|----------------------------------------------|
|
|---------------------------------------------------------------------|
|--------------------5-------------5--5--5--5--------5-5-5-5-5-5-5-5--|
|--6--6--6--9--6--6-----6----7--6--4--4--4--4--7--6--4-4-4-4-4-4-4-4--|
|--7--7--7--9--7--7--7--7----7--7--2--2--2--2--7--7--2-2-2-2-2-2-2-2--|
|--4--4--4--7--4--4--4--4----5--4--2--2--2--2--5--4--2-2-2-2-2-2-2-2--|
|---------------------------------------------------------------------|

[2:01]-[2:37]
|------------------------------------------|
|------------------------------------------|
|--7-7--7-7--6-6--4-4--7-7--7-7--6-6--4-4--|
|--7-7--7-7--7-7--2-2--7-7--7-7--7-7--2-2--|
|--5-5--5-5--4-4--2-2--5-5--5-5--4-4--2-2--|
|------------------------------------------|
|
|------------------------------------------|
|------------------------------------------|
|--7-7--6-6--4-4--4-4--7-7--7-7--6-6--4-4--|
|--7-7--7-7--2-2--2-2--7-7--7-7--7-7--2-2--|
|--5-5--4-4--2-2--2-2--5-5--5-5--0-0--2-2--|
|------------------------------------------|

[2:37]-[3:28]
|----------------------|--------------------------|
|------------5-5--5-5--|--------------------------|
|--4-4--7-7--4-4--4-4--|--7-7--7-7--6-6--4-4--6~--|
|--4-4--7-7--2-2--2-2--|--7-7--7-7--7-7--2-2--7~--|
|--2-2--5-5--2-2--2-2--|--5-5--5-5--0-0--2-2--4~--|
|--------------------x3|--------------------------|
 
 
Low Roar - Just A Habit Tab :: indexed at Ultimate Guitar.
Just A Habit tabs @ 911Tabs

Quick tip, so you can enjoy Just A Habit Tab even more:

After the registration (which takes just 10 seconds, remember?) you will be able to use your profile - your very own piece of YourChords.com.

Show us your talent, perform Just A Habit Tab!

Here you can post a video or audio performance. Tell me more ...
Where can we find your performance? Tell me more ...
Your comment:
Please, log in to post your performance.