Artists by letter: A B C D E F G H I J K L M N O P Q R S T U V W X Y Z 0-9

 
Unconscious Tab
This Is My First Tab So Excuse Me If There Are Mistakes c:

Tuning: Standard

Intro verse:
when did the world turn cold...
------------------------------------------------------------------|
------------------------------------------------------------------|
---------------------------------1--------------3-----------------|
-----4----4------4----4--------------4-------------4--------------|         Reapeat
--2----2---------------------4----4--------6----6-----------------|
---------------2-----2--------------------------------------------|

Bridge:
Hell is empty, all the devils....
------------------------------------------------------------|
------------------------------------------------------------|
--4---------6----8----6-------------------------------------|
--4----4----6----8----6------then repeat---------------------|
--2----4----4----6----4-------------------------------------|
-------2----------------------------------------------------|

Chorus:
Sometimes we think....
------------------------------------------------------------|
------------------------------------------------------------|
--------6-----8-----4---------------------------------------|
--4-----4------8------4-------------------------------------|
--4-----4------6------2-------------------------------------|
--2---------------------------------------------------------|

2nd Verse:
No we won't sell our souls...
------------------------------------------------------------|
------------------------------------------------------------|
---------------------------------1--------------3-----------|
-----4----4------4----4--------------4-------------4--------|
--2----2---------------------4----4--------6----6-----------|
---------------2-----2--------------------------------------|

Instrumental bit:
--------------------------------------------------|
--------------------------------------------------|
-----------3-------------------3------------------|
-----4-------4-(x2)----2--------2-(x2)------------|
--2----2------------------------------------------|
---------------------2-----2----------------------|

---------------------------------------------------|
---------------------------------------------------|
-------3-------------------------------------------|
---4------4-(x2)--------------3----4--3------------|
6----6---------------------4----4--------4---------|
---------------------------------------------------|

The strumming part that goes on during the solo part:
------------------------------------------------------------|
------------------------------------------------------------|
---4------------8-----6-------------------------------------|
---4-----4------8-----6-------------------------------------|
---2-----4------6-----4-------------------------------------|
---------2--------------------------------------------------|

For the solo part it's just 6-4-1-2---9-| on the high e string
--6-4-1-2---9---------------------------| (Repeat As Necessary)
----------------------------------------|
----------------------------------------|
----------------------------------------|
----------------------------------------|

I won't let my heart turn cold...
------------------------------------------------------------|
------------------------------------------------------------|
---------3--------3-----------------------------------------|
------4--------4-----------4----4---------------------------|
---2--------------------4----4------------------------------|
-------------2----------------------------------------------|

Chorus:
Sometimes we think....
------------------------------------------------------------|
------------------------------------------------------------|
--------6------8------4-------------------------------------|
--4-----4------8------4-------------------------------------|
--4-----4------6------2-------------------------------------|
--2---------------------------------------------------------|
 
 
D At Sea - Unconscious Tab :: indexed at Ultimate Guitar.
Unconscious tabs @ 911Tabs
People who played D At Sea - Unconscious Tab also played these songs by D At Sea:
Carrion Chords, Forever Alone Tab, Bloody Knuckles Chords, Memories Tab, Second And Sebring Chords, Pompeii Chords

Quick tip, so you can enjoy Unconscious Tab even more:

If you don't really know how to deal with "Absus4" chord and his equally confusing brothers, just put the mouse cursor over them and you will be shown a helpful chord diagram.

Show us your talent, perform Unconscious Tab!

Here you can post a video or audio performance. Tell me more ...
Where can we find your performance? Tell me more ...
Your comment:
Please, log in to post your performance.