Artists by letter: A B C D E F G H I J K L M N O P Q R S T U V W X Y Z 0-9

 
The Meaning Of Life Tab
The meaning of life

/  - slide
: - let chord ring
* - repeat 3 or four times

intro/main riff

|--------------------------------------------------|
|--------------------------------------------------|
|-7-10-7-5-10---10-7-10-12---12/1312--10-7*--10-5-|
|-7-10-7-5-10---10-7-10-12---12/1312--10-7*--10-5-|
|-5--8-5-3--8----8-5--8-10---10/1110---8-5*---8-3-|
|--------------------------------------------------|

|-----------------------------------------------------------|
|-----------------------------------------------------------|
|-7*--10-7-5-10*--10-7-10-12*--12/1312-10-------------10-5-|
|-7*--10-7-5-10*--10-7-10-12*--12/1312-10--3:---2-2:--10-5-|
|-5*---8-5-3--8*---8-5--8-10*--10/1110--8--------------8-3-|
|-----------------------------------------------------------|

|----------|
|----------|
|-7-7:---5-| repeat this 4 times
|-7-7:---5-|
|-5-5:---3-|
|----------|

pre-chorus

|---------------------------------------------------------------|
|---------------------------------------------------------------|
|-7xx--7-7-7xx--7-7-9-10xx--10-10-10xx--10-10-------------------|
|-7xx--7-7-7xx--7-7-9-10xx--10-10-10xx--10-10-10xx--10-10-10xx--|
|-5xx--5-5-5xx--5-5-7--8xx---8--8--8xx---8--8-10xx--10-10-10xx--|
|----------------------------------------------8xx---8--8--8xx--|

|--------------------------|
|--------------------------|
|--------------------------|
|-10-10-8xx--8-8-8-7-7-5*--|
|-10-10-8xx--8-8-8-7-7-5*--|
|--8--8-6xx--6-6-6-5-5-3*--|

chorus

|-----------------------------------------------------------------|
|-----------------------------------------------------------------|
|-7*-7*---------------10*-10*----7*-7*----------------------------|
|-7*-7*-8*-8*-10*-10*-10*-10*-10-7*-7*-8*-8*-10*-10*-7*-7-7-10-10-|
|-5*-5*-8*-8*-10*-10*--8*--8*-10-5*-5*-8*-8*-10*-10*-7*-7-7-10-10-|
|-------6*-6*--8*--8*----------8-------6*-6*--8*--8*-5*-5-5--8--8-|

|---------------------------------------------------------------------|
|---------------------------------------------------------------------|
|-7*-7*---------------10*-10*-------------------------10--7/10-7/10-|
|-7*-7*-8*-8*-10*-10*-10*-10*-10-8*-8*-8*-8*-10*-10*--10--7/10-7/10-|
|-5*-5*-8*-8*-10*-10*--8*--8*-10-8*-8*-8*-8*-10*-10*---8--5/-8-5/-8-|
|-------6*-6*--8*--8*----------8-6*-6*-6*-6*--8*--8*------------------|

riff

|-------------------------------|
|-10xx--11-11-11-13xx--10-10-10-|
|-10xx--11-11-11-13xx--10-10-10-|
|-------------------------------|
|-------------------------------|
|-------------------------------|

|--------------------|
|--------------------|
|-3:--3-5----5----5--|
|-3:--3-5--5-5--5-5--|
|-1:--1-3--5-3--5-3--|
|----------3----3----|

lyrics

on the way
trying to get where i'd like to stay
i'm always feeling steered away
by someone trying to tell me
what to say and do
i don't want it
i gotta go find my own way
i gotta go make my own mistakes
sorry man for feeling
feeling the way i do
oh yeah, oh yeah
open wide and they'll shove in
their meaning of life
oh yeah, oh yeah
but not for me i'll do it on my own
oh yeah, oh yeah
open wide and swallow their meaning of life
i can't make it work your way
thanks but no thanks
by the way
i know your path has been tried and so
it may seem like the way to go
me, i'd rather be found
trying something new
and the bottom line
in all of this seems to say
there's no right and wrong way
sorry if i don't feel like
living the way you do

 
 
Offspring - The Meaning Of Life Tab :: indexed at Ultimate Guitar.
The Meaning Of Life tabs @ 911Tabs

About the artist behind The Meaning Of Life Tab:

The Offspring (sometimes referred to simply as Offspring) are a popular and influential[8] American punk rock band from Garden Grove, California formed in 1984. Since its inception, the band's line-up has included Dexter Holland (lead vocals, guitar), Noodles (lead and rhythm guitars, backing vocals) and Greg K. (bass, backing vocals). Their current drummer is Pete Parada, formerly of Face to Face and Saves the Day, who has been with the band since 2007.

Since the release of their 1994 album Smash, which is the best-selling independent label album of all time,[9] The Offspring have achieved commercial success over five albums, with singles such as "Come Out and Play", and "Self Esteem". The band's next three albums, Ixnay on the Hombre, Americana and Conspiracy of One, were also successful, reaching platinum certification and gold status respectively.[10][11] Longtime drummer Ron Welty left The Offspring in early 2003, and was replaced by Atom Willard. Later that year, the band released their next album, Splinter, to moderate sales and fairly warm reviews. In 2005, The Offspring released a greatest hits album and toured in support of the compilation. Their next album, titled Rise and Fall, Rage and Grace, will be released on June 16, 2008 in Europe and a day later in the United States [12]; it can be streamed for free online, as well.[13]

To date, The Offspring have released eight studio albums, one compilation, four EPs and three DVD's[14], selling over 38 million albums worldwide[9], making them one of the best-selling punk acts of all time.[15] The band is credited, along with fellow California punk bands Green Day and Rancid, with reviving popular interest in punk rock in the United States during the mid-1990s.[16]

Indexed at Wikipedia.

Show us your talent, perform The Meaning Of Life Tab!

Here you can post a video or audio performance. Tell me more ...
Where can we find your performance? Tell me more ...
Your comment:
Please, log in to post your performance.