Artists by letter: A B C D E F G H I J K L M N O P Q R S T U V W X Y Z 0-9

 
Nuclear Strike Tab
-----------------------------------------------------------------------------
                         Nuclear Strike - Nocturnal
-----------------------------------------------------------------------------

Band:  Nocturnal
    Album: Arrival of the Carnivore
    Song:  Nuclear Strike
    Copyright (c) Deathstrike Records
    Version 1.0 - 11/01/2012
    Transcribed By: ulfskeptr
    Email: [email protected]

http://www.myspace.com/nocturnalthrash

.  - palm mute           ,  - slight palm mute
  - slide down to       /  - slide up to
~  - vibrato             b  - bend
h  - hammer on           p  - pull off
[] - second time         *  - see comment
t  - tap                 ph - pinched harmonic
x  - staccato            () - ghost note, sustained note
"  - tremolo note         - trill

Suffixes for bend
f  - full bend    h - half bend
q  - quarter bend t - tap bend
^  - hold bend    r - release bend
~  - vibrato bend

Tuning: Tune down Half-Step

Pre Riff 1
eb|--------|
Bb|--------|
Gb|--4--5--|
Db|--2--3--|
Ab|--------|
Eb|--------|

Riff 1 - Intro
eb|--------------------------------------------------------------------------|
Bb|--------------------------------------------------------------------------|
Gb|---------2------5------------------------2-----5h7p5----------------------|
Db|--2--2-3----/7----7-5---....------2--2-3----/7--------7-5---....----------|
Ab|--0-------------------7-6666-6h7--0-----------------------7-6666-6--------|
Eb|--------------------------------------------------------------------------|

----------------------------------------------------------------------------|
----------------------------------------------------------------------------|
---------2------5-----------------------------------------------------------|
--2--2-3----/7----7-5---....------10--5--5/7--------------------------------|
--0-------------------7-6666-6h7--8---3--3/5--------------------------------|
----------------------------------------------------------------------------|

Riff 1 - (only rhythm of ending differs)
eb|-------------------------------------------------------------------------|
Bb|-------------------------------------------------------------------------|
Gb|-------------------------------------------------------------------------|
Db|--10--....--10--....--10---5--....--5--....--5/7------------------------|
Ab|--8---8888--8---8888--8----3--3333--3--3333--3/5------------------------|
Eb|-------------------------------------------------------------------------|

Riff 2
eb|-------------------------------------------------------------------------|
Bb|-------------------------------------------------------------------------|
Gb|-----------4-4-5-------------------------------4-4-5---------------------|
Db|--2-.....--2-2-3--5-.....-------------2-.....--2-2-3--5-.....--------4---|
Ab|--0-00000---------3-33333--2-2h3p2----0-00000---------3-33333--5--.--2---|
Eb|---------------------------------------------------------------3-(3)-----|

Riff 3
eb|--------------------------------------------------------------------------|
Bb|--------------------------------------------------------------------------|
Gb|--------------------------------------------------------------------------|
Db|--2-.......---5-.......---7-.......---9-.....-5----2-.......---5-.......--|
Ab|--0-0000000-5-3-3333333-5-5-5555555-5-7-77777-3----0-0000000-5-3-3333333--|
Eb|------------3-----------3-----------3------------------------3------------|

--------------------------|
--------------------------|
-------------------7--9--|
----7-.......---9--7--9--|
--5-5-5555555-5-7---------|
--3-----------3-----------|

Solo backing Riff
eb|------------------|
Bb|------------------|
Gb|------4"--5"------|
Db|--2"--2"--3"--5"--|
Ab|--0"----------3---|
Eb|------------------|

Outro
eb|-------------------------------------------------------------------------|
Bb|-------------------------------------------------------------------------|
Gb|-----------------------5h7p5-----------5h7p5-----------5h7p5-----7p5-----|
Db|--5"-7"--5"-7"--5"-7"--------7-6-5-----------7-6-5-----------7-6-----7-6-|
Ab|-----------------------------------7-6-------------7-6-------------------|
Eb|-------------------------------------------------------------------------|

---------------|
---------------|
---------------|
--10--5--7--2--|
--8---3--5--0--|
---------------|

Structure:

Pre - Riff 1
Riff 1 (Intro) - 2x
Riff 1         - 2x
Riff 2         - 2x
Riff 3         - 2x
Riff 1         - 2x
Riff 2         - 2x
Riff 3         - 2x
Solo (backing Riff)
Riff 1         - 2x
Outro
 
 
Nocturnal - Nuclear Strike Tab :: indexed at Ultimate Guitar.
Nuclear Strike tabs @ 911Tabs

Quick tip, so you can enjoy Nuclear Strike Tab even more:

YourChords.com Guitar Chords and Tabs Archive is currently indexing over 240'000 songs from 21'000+ different artists. And new chords just keep on coming in, so you will surely never run out of them.

Show us your talent, perform Nuclear Strike Tab!

Here you can post a video or audio performance. Tell me more ...
Where can we find your performance? Tell me more ...
Your comment:
Please, log in to post your performance.