Artists by letter: A B C D E F G H I J K L M N O P Q R S T U V W X Y Z 0-9

Hearts Of The Innocent Tab (ver 2) - Kutless


 
Hearts Of The Innocent Tab
utless
Album:Hearts of the Innoccent
Song:Hearts of the Innoccent
Tabbed by Nate H.

Intro: (Guitar 1)

eb|------------------------------------------------------------------------------------------|
Bb|------------------------------------------------------------------------------------------|
Gb|------------------------------------------------------------------------------------------|
Db|-------------------------------------------------------------10-10-10-10-7-7--7-7-7-------|
Ab|-------------------------------------------------------------10-10-10-10-7-7--7-7-7-------|
Db|-0-2-0-2-0-2-0-2/5-5-0-2-0-2-0-2-0-2/7-7-0-2-0-2-0-2-0-2/5-5-10-10-10-10-7-7--7-7-7-------|

Intro cont: (Guitars 1 and 2)
eb|------------------------------------------------------------------------------------------|
Bb|------------------------------------------------------------------------------------------|
Gb|------------------------------------------------------------------------------------------|
Db|-0h2-2-0h2-0h2-0h2/5-5-0h2-2-0h2-0h2-0h2/7-7-0h2-2-0h2-0h2-0h2/5-5-10-10-10-10-7-7--7-7-7-|
Ab|-0h2-2-0h2-0h2-0h2/5-5-0h2-2-0h2-0h2-0h2/7-7-0h2-2-0h2-0h2-0h2/5-5-10-10-10-10-7-7--7-7-7-|
Db|-0h2-2-0h2-0h2-0h2/5-5-0h2-2-0h2-0h2-0h2/7-7-0h2-2-0h2-0h2-0h2/5-5-10-10-10-10-7-7--7-7-7-|

Note: For this part theres alot of hammer-ons and stuff and it looks a little tricky but 
you really
have to do is go by feel. This is almost exactly what I play and what I think they play, 
in this
case you can't just read the tab and play it, its more about feel.

Verse : (Guitar 1)

eb|-0------0---------------------------------------------------------------------------------|
Bb|---3------3-------------------------------------------------------------------------------|

2x
Db|---------------4------7-7-7-7-7-0-0-0-2-2-2-----------------------------------------------|
Ab|----------------------7-7-7-7-7-0-0-0-2-2-2-----------------------------------------------|
Db|----------------------7-7-7-7-7-0-0-0-2-2-2-----------------------------------------------|

Prechorus: (Guitar 1)

eb|------------------------------------------------------------------------------------------|
Bb|------------------------------------------------------------------------------------------|
Gb|------------------------------------------------------------------------------------------|
Db|-10-10-10-10-10-10-10-10-7-7-7-7-7-7-7-7-10-10-10-10-10-10-10-10-7-7-7-7-7-7-7-7----------|
Ab|-10-10-10-10-10-10-10-10-7-7-7-7-7-7-7-7-10-10-10-10-10-10-10-10-7-7-7-7-7-7-7-7----------|
Db|-10-10-10-10-10-10-10-10-7-7-7-7-7-7-7-7-10-10-10-10-10-10-10-10-7-7-7-7-7-7-7-7----------|

Prechorus: (Guitar 1) cont.

eb|-----7------------10-----------7-6--------------------------------------------------------|
Bb|-8-------8---8---------8---8--------------------------------------------------------------|
Gb|---9---9---9---9-----9---9---9------------------------------------------------------------|
Db|-----------------------------------2-4-5-7-4-0-2------------------------------------------|
Ab|-----------------------------------2-4-5-7-4-0-2------------------------------------------|
Db|-----------------------------------2-4-5-7-4-0-2------------------------------------------|

Chorus: (Guitar 1)

eb|-------------------------------------------------------------------------------------------|
Bb|-------------------------------------------------------------------------------------------|

3x
Db|-2-2-2-2-2-2-2-2-5-5-5-5-5-5-5-5-10-10-10-10-10-10-10-10-0-2-0-2-0-2-0-2/5-5---------------|
Ab|-2-2-2-2-2-2-2-2-5-5-5-5-5-5-5-5-10-10-10-10-10-10-10-10-0-2-0-2-0-2-0-2/5-5---------------|
Db|-2-2-2-2-2-2-2-2-5-5-5-5-5-5-5-5-10-10-10-10-10-10-10-10-0-2-0-2-0-2-0-2/5-5---------------|

Note: Last time you play the chorus you end with:

eb|-------------------------------------------|
Bb|-------------------------------------------|
Gb|-------------------------------------------|
Db|-10-10-10-10-10-10-10-10-7-7-7-7-7-7-7-7---|
Ab|-10-10-10-10-10-10-10-10-7-7-7-7-7-7-7-7---|
Db|-10-10-10-10-10-10-10-10-7-7-7-7-7-7-7-7---|

Chorus: (Guitar 2)

Its hard to hear but I think hes playing an E octave on the 7th fret and then sliding 
two frets
to a D sometimes, and then sliding up to a G on the 10th fret. It goes something like 
This isn't
even close to being the exact sequence of these octaves but it gives you and idea.

eb|------------------------------------------------------------------------------------------|
Bb|------------------------------------------------------------------------------------------|
Gb|-9-9-9-9-9-9-9/7/9-9-9-9/12/-9/12-9-9-9-9-------------------------------------------------|
Db|-x-x-x-x-x-x-x-x-x-x-x-x-x---x-x--x-x-x-x----and so on------------------------------------|
Ab|-7-7-7-7-7-7-7/5/7-7-7-7/10/-7/10-7-7-7-7-------------------------------------------------|
Db|------------------------------------------------------------------------------------------|

Bridge: (Guitar 1)

The same thing as the first section of the intro

Solo: (Guitar 1)

eb|----------------------------------------------------------------------------------------------|
Bb|-11b-------------------11b-------------------------12------12-------12-13-12---------12-------|
Gb|-----14-12-12h14-12--------14-12-12h14-12-------14------14-------14----------12----14------12-|
Db|--------------------14--------------------14-14-------14------14----------------14------14----|
Ab|----------------------------------------------------------------------------------------------|
Db|----------------------------------------------------------------------------------------------|

Solo: (Guitar 1) cont.

eb|------------------------------------------------------------------------------------------|
Bb|------------------------------------------------------------------------------------------|
Gb|-7--9--10-12-9--5/9-----------------------------------------------------------------------|
Db|-x--x--x--x--x--x-x-----------------------------------------------------------------------|
Ab|-9--11-12-14-11-7/7-----------------------------------------------------------------------|
Db|------------------------------------------------------------------------------------------|

Solo: (Guitar 2)

eb|------------------------------------------------------------------------------------------|
Bb|------------------------------------------------------------------------------------------|
Gb|------------------------------------------------------------------------------------------|
Db|-0-2-0-2-0-2-0-2/5-5-0-2-0-2-0-2-0-2/7-10-10-10-10-10-10-10-10-7-7-7-7-7-7-7-7------------|
Ab|-0-2-0-2-0-2-0-2/5-5-0-2-0-2-0-2-0-2/7-10-10-10-10-10-10-10-10-7-7-7-7-7-7-7-7------------|
Db|-0-2-0-2-0-2-0-2/5-5-0-2-0-2-0-2-0-2/7-10-10-10-10-10-10-10-10-7-7-7-7-7-7-7-7------------|

Solo: (Guitar2) cont.

eb|------------------------------------------------------------------------------------------|
Bb|------------------------------------------------------------------------------------------|
Gb|------------------------------------------------------------------------------------------|
Db|-10-10-10-10-10-10-10-10-7-7-7-7-7-7-7-7-2-4-5-7-4-0-2------------------------------------|
Ab|-10-10-10-10-10-10-10-10-7-7-7-7-7-7-7-7-2-4-5-7-4-0-2------------------------------------|
Db|-10-10-10-10-10-10-10-10-7-7-7-7-7-7-7-7-2-4-5-7-4-0-2------------------------------------|

Outro: (Guitar 1)

eb|------------------------------------------------------------------------------------------|
Bb|------------------------------------------------------------------------------------------|
Gb|------------------------------------------------------------------------------------------|
Db|-2-4-5-7-4-0-2-4-5-7-4-0-2-4-5-7-0--------------------------------------------------------|
Ab|-2-4-5-7-4-0-2-4-5-7-4-0-2-4-5-7-0--------------------------------------------------------|
Db|-2-4-5-7-4-0-2-4-5-7-4-0-2-4-5-7-0--------------------------------------------------------|

Outro: (Guitar 2)
eb|------------------------------------------------------------------------------------------|
Bb|------------------------------------------------------------------------------------------|
Gb|-7--9--10-12-9--5--7--9--10-12-9--5--7--9--10--9--5---------------------------------------|
Db|-x--x--x--x--x--x--x--x--x--x--x--x--x--x--x---x--x---------------------------------------|
Ab|-9--11-12-14-11-7--9--11-12-14-11-7--9--11-12--11-7---------------------------------------|
Db|------------------------------------------------------------------------------------------|

Note: All verses and choruses are the same, just play them in order.

Enjoy! this is my first tab so please rate.
 
 
Kutless - Hearts Of The Innocent Tab :: indexed at Ultimate Guitar.
Hearts Of The Innocent tabs @ 911Tabs

About the artist behind Hearts Of The Innocent Tab:

Kutless is a Christian rock band formed in 1999 from Portland, Oregon. The band was previously under the name "Call Box" from 2000-2001. As Kutless, they have released four full-length studio albums, the most recent being titled Hearts of the Innocent (2006). Their next album, To Know That You're Alive, is set to be released on June 24, 2008.[1]

Indexed at Wikipedia.

Show us your talent, perform Hearts Of The Innocent Tab!

Here you can post a video or audio performance. Tell me more ...
Where can we find your performance? Tell me more ...
Your comment:
Please, log in to post your performance.