Artists by letter: A B C D E F G H I J K L M N O P Q R S T U V W X Y Z 0-9

 
Mirai E Tab
Title: Mirai E
Artist: kiroro
Tabbed by: Jhoseph N. la Rosa
Email: [email protected]

this is my first time to upload tabs, ill make this cause i dont see
any tabs for this song and i think this is good ^_^
      
 
Legend:  ~   vibration
            slide down
         h   hamer
         .   play faster

Intro:
E|--5-5-6-5-5-6-5-5-6-5-5--6--6-8-6--6-8-6--6-5-3---|
B|--6-6---6-6---6-6---6-6--6--6---6--6---6--6---5---|
G|---5-----5-----5-----5-5-7-7----7-7----7-7----5---|
D|--------------------------------------------------|
A|--------------------------------------------------|
E|--------------------------------------------------|

I.

E|-5-3-1----1-1-2-5-6-5--6-3-1-3-0-0-1--|---------(1)6-5------|
B|---------------------------------------|-3-3-5-6--6-----5-5--|
G|---------------------------------------|---------------------|
D|---------------------------------------|---------------------|
A|---------------------------------------|---------------------|
E|---------------------------------------|---------------------|
   Hora     ashimoto wo mitegoran Kore ga  anata no ayumu michi



E|--------10-8-6-5-6-8~-------|-6-5-6--6-6-5-3-1-0-31-|
B|-65-3----------------6-6---|------------------------|
G|----------------------------|------------------------|
D|----------------------------|------------------------|
A|----------------------------|------------------------|
E|----------------------------|------------------------|
   Hora   mae wo mitegoran      Are ga anata no mirai

II.

E|-1-0-1--------------------------------|------------------------|
B|--------------1----3-3-3-1---3-1------|------1-1-----1----3-3--|
G|----------2-3--------------3-----0-2--|-3----------2-----------|
D|--------------------------------------|------------------------|
A|--------------------------------------|------------------------|
E|--------------------------------------|------------------------|
  Haha ga  kureta   takusan no yasashisa   Ai wo      idaite



E|-------1-1h3-0----------|-1-0-1-0.1-------|----------------------------|
B|---1-3---------3-5-31--|---------------1-|-3-1-------------2-2-1-21--|
G|-3----------------------|-----------2h3---|-----3-2.3---3.3------3-----|
D|------------------------|-----------------|----------------------------|
A|------------------------|-----------------|----------------------------|
E|------------------------|-----------------|----------------------------|
   ayume to kurikaeshita   Ano toki wa mada  osanakute  imi nado shiranai

E|---0.1~1-1-3-5--5-6-5-3-1-53-|---0.0--0-1-3.3-1.1-----|
B|-3----------------------------|-3----------------------|
G|------------------------------|------------------------|
D|------------------------------|------------------------|
A|------------------------------|------------------------|
E|------------------------------|------------------------|
   Sonna watashi no te wo nigiri Issho ni ayundekita

III.

E|-1-0-1--------------------------------|-----------------------|
B|-------------1----3-3-3-1---3-1-------|---------1.1-----1-----|
G|---------2-3--------------3-----3-2---|-2-3.3.3-------2---3---|
D|--------------------------------------|-----------------------|
A|--------------------------------------|-----------------------|
E|--------------------------------------|-----------------------|
  Yume wa itsumo    sora takaku aru kara  Todokanakute kowai ne



E|-------1-1-3-0-----------|-1-0.1-0----------------------------|
B|---1-3---------3-5.3.1---|-------------3-1---3-1--------------|
G|-3-----------------------|---------2-3-----------3-2.3~-------|
D|-------------------------|------------------------------------|
A|-------------------------|------------------------------------|
E|-------------------------|------------------------------------|
   dakedo oitsuzukeru no    Jibun no SUTOORII  dakara koso

E|-----------------|---0.1~1-1-3-5--5-6-5-3-1-53-|---0.0--0-1-3.3-1.1-----|
B|---2-2.2-1-2/1---|-3----------------------------|-3----------------------|
G|-3--------3------|------------------------------|------------------------|
D|-----------------|------------------------------|------------------------|
A|-----------------|------------------------------|------------------------|
E|-----------------|------------------------------|------------------------|
   akirametakunai    Fuan ni naru to te wo nigiri  Issho ni ayundekita

IV.

E|-----6-5-6.3-----------8-6-8-6.5------|-5.5.3-----------------5-5-3.3---|
B|-3.3-------------3.5.5----------------|------6---3.3.5.6--3-3-----------|
G|--------------------------------------|---------------------------------|
D|--------------------------------------|---------------------------------|
A|--------------------------------------|---------------------------------|
E|--------------------------------------|---------------------------------|
  sono yasashi wo toki ni wa iyagari      Hanareta haha e sunao ni narezu

(Repeat I.)
(Repeat IV.)
(Repeat I.)

V.

E|----------8-6-5.6~---|---6---6-6-5-3-------------------|
B|---5.6---------------|-6------------6.6-6-6-6~~~-------|
G|-5~----5-------------|---------------------------------|
D|---------------------|---------------------------------|
A|---------------------|---------------------------------|
E|---------------------|---------------------------------|
  Mirai e mukatte       yukkuri to aruite yukou

enjoy

 
 
Kiroro - Mirai E Tab :: indexed at Ultimate Guitar.
Mirai E tabs @ 911Tabs
People who played Kiroro - Mirai E Tab also played these songs by Kiroro:
Mirai Chords, Best Friend Chords, Mirai Chords, Mirai E Chords, Mirai, Best Friend

Quick tip, so you can enjoy Mirai E Tab even more:

If you spend just 10 seconds to register, you will be able to comment on all the chords and tabs and rate them. You will as well be able to comment on videos of your fellow guitarists and give them ratings from 1 to 5 ... And - of course - you can share your own videos with them and see what they think of you. :)
Click here to join us!

Show us your talent, perform Mirai E Tab!

Here you can post a video or audio performance. Tell me more ...
Where can we find your performance? Tell me more ...
Your comment:
Please, log in to post your performance.