Artists by letter: A B C D E F G H I J K L M N O P Q R S T U V W X Y Z 0-9

 
Doo Bidoo Tab
-------------------------------------------------------------------------------
                             Doo bidoo - Kamikazee
-------------------------------------------------------------------------------
Tabbed by:Al Hilado
Email:[email protected]

e2 na!! po ang ang doo bidoo by kamikazee
at bawal mga magnanakaw na tabbers!!
kung may mali comment!! wag nakaw!!
peace!!
figure out the strumming..

hi po pala sa mga taga HCDC davao students!!

Tuning:standard

Intro:
  Eto na.. eto na.. eto na.. Ahhhhhhh!!
e|----------------------------------------|
B|-------------------5--------------------|
G|----------6--------6--------6-6-6-6-6-6-|
D|-7--------7--------7--------7-7-7-7-7-7-|
A|-7--------7--------7--------7-7-7-7-7-7-|
E|-5--------5--------5--------5-5-5-5-5-5-|
 
Chorus:

Do bidoo bidoo.. bidoo bidoo, Do bidoo bidoo.. bidoo bidoo
e|---------------------------------------------------------------------|
B|---------------------------------------------------------------------|
G|-7-7-7-7-7-7-7-7-7---------------------------------7-7-7-7-7-7-7-7-7-|
D|-7-7-7-7-7-7-7-7-7-8-8-8-8-8-8-8-8-7-7-7-7-7-7-7-7-7-7-7-7-7-7-7-7-7-|
A|-5-5-5-5-5-5-5-5-5-8-8-8-8-8-8-8-8-7-7-7-7-7-7-7-7-5-5-5-5-5-5-5-5-5-|
E|-------------------6-6-6-6-6-6-6-6-5-5-5-5-5-5-5-5-------------------|
 |
 |
e|---------------------------------------------------------------------|
B|---------------------------------------------------------------------|
G|-7-7-9-9-11-11-9-9-7-7-9-9-7-7-6-6-7-7-9-9-11-11-9-9-7-7-9-9-7-7-6-6-|
D|-x-x-x-x- x- x-x-x-x-x-x-x-x-x-x-x-x-x-x-x- x- x-x-x-x-x-x-x-x-x-x-x-|
A|-5-5-7-7- 9- 9-7-7-5-5-7-7-5-5-4-4-5-5-7-7- 9- 9-7-7-5-5-7-7-5-5-4-4-|
E|---------------------------------------------------------------------|
  
   Do bidoo bidoo.. bidoo bidoo, Do bidoo bidoo.. 
e|---------------------------------------------------------------------|
B|---------------------------------------------------------------------|
G|-7-7-7-7-7-7-7-7-7---------------------------------7-7-7-7-7-7-7-7-7-|
D|-7-7-7-7-7-7-7-7-7-8-8-8-8-8-8-8-8-7-7-7-7-7-7-7-7-7-7-7-7-7-7-7-7-7-|
A|-5-5-5-5-5-5-5-5-5-8-8-8-8-8-8-8-8-7-7-7-7-7-7-7-7-5-5-5-5-5-5-5-5-5-|
E|-------------------6-6-6-6-6-6-6-6-5-5-5-5-5-5-5-5-------------------|
 |
 |
e|---------------------------------------------------------------------|
B|---------------------------------------------------------------------|
G|-7-7-9-9-11-11-9-9-7-7-9-9-7-7-6-6-7-7-9-9-11-11-9-------------------|
D|-x-x-x-x- x- x-x-x-x-x-x-x-x-x-x-x-x-x-x-x- x- x-x-------------------|
A|-5-5-7-7- 9- 9-7-7-5-5-7-7-5-5-4-4-5-5-7-7- 9- 9-7-------------------|
E|---------------------------------------------------------------------|

Verse :
  
   Kapag nag iisa't kasama ang gitara....
e|-----------------------------------------------------------------|
B|-----------------------------------------------------------------|
G|-----------------------------------------------------------------|
D|-7-7-7-7-7-7-7-7---------------------------------7-7-7-7-7-7-7-7-|> PM
A|-5-5-5-5-5-5-5-5-8-8-8-8-8-8-8-8-7-7-7-7-7-7-7-7-5-5-5-5-5-5-5-5-|> PM
E|-----------------6-6-6-6-6-6-6-6-5-5-5-5-5-5-5-5-----------------|> PM
   
  Awiting maaari ring...
e|-----------------------------------------------------------------|
B|-----------------------------------------------------------------|
G|-----------------------------------------------------------------|
D|-7-7-7-7-7-7-7-7---------------------------------7-7-7-7-7-7-7-7-|> PM
A|-5-5-5-5-5-5-5-5-8-8-8-8-8-8-8-8-7-7-7-7-7-7-7-7-5-5-5-5-5-5-5-5-|> PM
E|-----------------6-6-6-6-6-6-6-6-5-5-5-5-5-5-5-5-----------------|> PM

Sabayan ang Sipol..
e|-----------------------------------------------------------------|
B|-----------------------------------------------------------------|
G|-----------------------------------------------------------------|
D|-7-7-7-7-7-7-7-7---------------------------------7-7-7-7-7-7-7-7-|
A|-5-5-5-5-5-5-5-5-8-8-8-8-8-8-8-8-7-7-7-7-7-7-7-7-5-5-5-5-5-5-5-5-|
E|-----------------6-6-6-6-6-6-6-6-5-5-5-5-5-5-5-5-----------------|

Kapag buo na't handa na ang lahat..
e|-----------------------------------------------------------------|
B|-----------------------------------------------------------------|
G|-----------------------------------------------------------------|
D|-7-7-7-7-7-7-7-7---------------------------------7-7-7-7-7-7-7-7-|
A|-5-5-5-5-5-5-5-5-8-8-8-8-8-8-8-8-7-7-7-7-7-7-7-7-5-5-5-5-5-5-5-5-|
E|-----------------6-6-6-6-6-6-6-6-5-5-5-5-5-5-5-5-----------------|

Eto na.. eto na.. eto na.. Ahhhhhhh!!
e|----------------------------------------|
B|-------------------5--------------------|
G|----------6--------6--------6-6-6-6-6-6-|
D|-7--------7--------7--------7-7-7-7-7-7-|
A|-7--------7--------7--------7-7-7-7-7-7-|
E|-5--------5--------5--------5-5-5-5-5-5-|

Chorus:

Do bidoo bidoo.. bidoo bidoo, Do bidoo bidoo.. bidoo bidoo
e|---------------------------------------------------------------------|
B|---------------------------------------------------------------------|
G|-7-7-7-7-7-7-7-7-7---------------------------------7-7-7-7-7-7-7-7-7-|
D|-7-7-7-7-7-7-7-7-7-8-8-8-8-8-8-8-8-7-7-7-7-7-7-7-7-7-7-7-7-7-7-7-7-7-|
A|-5-5-5-5-5-5-5-5-5-8-8-8-8-8-8-8-8-7-7-7-7-7-7-7-7-5-5-5-5-5-5-5-5-5-|
E|-------------------6-6-6-6-6-6-6-6-5-5-5-5-5-5-5-5-------------------|
 |
 |
e|---------------------------------------------------------------------|
B|---------------------------------------------------------------------|
G|-7-7-9-9-11-11-9-9-7-7-9-9-7-7-6-6-7-7-9-9-11-11-9-9-7-7-9-9-7-7-6-6-|
D|-x-x-x-x- x- x-x-x-x-x-x-x-x-x-x-x-x-x-x-x- x- x-x-x-x-x-x-x-x-x-x-x-|
A|-5-5-7-7- 9- 9-7-7-5-5-7-7-5-5-4-4-5-5-7-7- 9- 9-7-7-5-5-7-7-5-5-4-4-|
E|---------------------------------------------------------------------|
  
   Do bidoo bidoo.. bidoo bidoo, Do bidoo bidoo.. 
e|---------------------------------------------------------------------|
B|---------------------------------------------------------------------|
G|-7-7-7-7-7-7-7-7-7---------------------------------7-7-7-7-7-7-7-7-7-|
D|-7-7-7-7-7-7-7-7-7-8-8-8-8-8-8-8-8-7-7-7-7-7-7-7-7-7-7-7-7-7-7-7-7-7-|
A|-5-5-5-5-5-5-5-5-5-8-8-8-8-8-8-8-8-7-7-7-7-7-7-7-7-5-5-5-5-5-5-5-5-5-|
E|-------------------6-6-6-6-6-6-6-6-5-5-5-5-5-5-5-5-------------------|
 |
 |
e|---------------------------------------------------------------------|
B|---------------------------------------------------------------------|
G|-7-7-9-9-11-11-9-9-7-7-9-9-7-7-6-6-7-7-9-9-11-11-9-------------------|
D|-x-x-x-x- x- x-x-x-x-x-x-x-x-x-x-x-x-x-x-x- x- x-x-------------------|
A|-5-5-7-7- 9- 9-7-7-5-5-7-7-5-5-4-4-5-5-7-7- 9- 9-7-------------------|
E|---------------------------------------------------------------------|
   
Repeat:
verse
intro 
chorus

Bridge:

e|---------------------|
B|--------- 9b- 9b- 9b-|
G|-7-7-7-7-12b-12b-12b-|(repeat 4x)
D|-7-7-7-7-------------|
A|-5-5-5-5-------------|
E|---------------------|

Ah do bidoo bi... Ah do bidoo bi...
e|-----------------------------------------------------------|
B|-----------------------------------------------------------|
G|-7-7-7-7-9-9-11-11-------------6-6-6-6-7-7-9-9-7-7-7-7-7-7-|
D|-7-7-7-7-9-9-11-11-9-9-9-9-9-9-6-6-6-6-7-7-9-9-7-7-7-7-7-7-|
A|-5-5-5-5-7-7- 9- 9-9-9-9-9-9-9-4-4-4-4-5-5-7-7-5-5-5-5-5-5-|
E|-------------------7-7-7-7-7-7-----------------------------|
 |
 |
e|-----------------------------------------------------------|
B|-----------------------------------------------------------|
G|-7-7-7-7-9-9-11-11-------------6-6-6-6-7-7-9-9-7-7-7-7-7-7-|
D|-x-x-x-x-x-x- x- x-9-9-9-9-9-9-x-x-x-x-x-x-x-x-x-x-x-x-x-x-|
A|-5-5-5-5-7-7- 9- 9-x-x-x-x-x-x-4-4-4-4-5-5-7-7-5-5-5-5-5-5-|
E|-------------------7-7-7-7-7-7-----------------------------|

Ah do bidoo bi... Ah do bidoo bi...
e|-----------------------------------------------------------|
B|-----------------------------------------------------------|
G|-7-7-7-7-9-9-11-11-------------6-6-6-6-7-7-9-9-7-7-7-7-7-7-|
D|-7-7-7-7-9-9-11-11-9-9-9-9-9-9-6-6-6-6-7-7-9-9-7-7-7-7-7-7-|
A|-5-5-5-5-7-7- 9- 9-9-9-9-9-9-9-4-4-4-4-5-5-7-7-5-5-5-5-5-5-|
E|-------------------7-7-7-7-7-7-----------------------------|
 |
 |
e|-----------------------------------------------------------|
B|-----------------------------------------------------------|
G|-7-7-7-7-9-9-11-11-------------6-6-6-6-7-7-9-9-7-7-7-7-7-7-|
D|-x-x-x-x-x-x- x- x-9-9-9-9-9-9-x-x-x-x-x-x-x-x-x-x-x-x-x-x-|
A|-5-5-5-5-7-7- 9- 9-x-x-x-x-x-x-4-4-4-4-5-5-7-7-5-5-5-5-5-5-|
E|-------------------7-7-7-7-7-7-----------------------------|

adlib: just figure out the rythm guitar..
       this is for the lead guitar..

HEY!!
e|---------------------------------------------------|
B|---------------------------------------------------|
G|-7-7-7-7-7-7-9-9-9-9-11-11-11-11-12-12-12-12-12-12-|
D|-x-x-x-x-x-x-x-x-x-x- x- x- x- x- x- x- x- x- x- x-|
A|-5-5-5-5-5-5-7-7-7-7- 9- 9- 9- 9-10-10-10-10-10-10-|
E|---------------------------------------------------|

HEY!!
e|-------------------------------------------------------------------|
B|-------------------------------------------------------------------|
G|-14-14-14-14-14-14-15-15-15-15-17-17-17-17-15-15-15-15-14-14-14-14-|
D|- x- x- x- x- x- x--x- x- x- x- x- x- x- x- x- x- x--x- x- x- x- x-|
A|-12-12-12-12-12-12-13-13-13-13-15-15-15-15-13-13-13-13-12-12-12-12-|
E|-------------------------------------------------------------------|
               
                     HEY!!                 HEY!!
e|---------------------------------------------|
B|---------------------------------------------|
G|-12-11-9-7-12-11-9-7-12-11-9-7-7-7-7-7-7-7-7-|
D|- x- x-x-x--x- x-x-x- x- x-x-x-x-x-x-x-x-x-x-|
A|-10- 9-7-5-10- 9-7-5-10- 9-7-5-5-5-5-5-5-5-5-|
E|---------------------------------------------|

e|---------------------------|
B|---------------------------|
G|---------------------------|
D|---------------------------|
A|-5-5-5-5-5-5-5-5-5-5-5-5-0-|> PM
E|---------------------------|
 
  Hindi naman kailangan boses mo'y maganda...
e|-----------------------------------------------------------------|
B|-----------------------------------------------------------------|
G|-----------------------------------------------------------------|
D|-----------------------------------------------------------------|
A|-5-5-5-5-5-5-5-5-2-2-2-2-2-2-2-2---------------------------------|> PM
E|---------------------------------3-3-3-3-3-3-3-3-5-5-5-5-5-5-5-5-|> PM

Kung medyo sentunado...
e|-----------------------------------------------------------------|
B|-----------------------------------------------------------------|
G|-----------------------------------------------------------------|
D|-----------------------------------------------------------------|
A|-5-5-5-5-5-5-5-5-2-2-2-2-2-2-2-2---------------------------------|> PM
E|---------------------------------3-3-3-3-3-3-3-3-5-5-5-5-5-5-5-5-|> PM
 
   ihanda ang tropa...
e|-----------------------------------------------------------------|
B|-----------------------------------------------------------------|
G|-----------------------------------------------------------------|
D|-7-7-7-7-7-7-7-7---------------------------------7-7-7-7-7-7-7-7-|
A|-5-5-5-5-5-5-5-5-8-8-8-8-8-8-8-8-7-7-7-7-7-7-7-7-5-5-5-5-5-5-5-5-|
E|-----------------6-6-6-6-6-6-6-6-5-5-5-5-5-5-5-5-----------------|
   
  kapag buo't na handa na ang lahat...
e|-----------------------------------------------------------------|
B|-----------------------------------------------------------------|
G|-----------------------------------------------------------------|
D|-7-7-7-7-7-7-7-7---------------------------------7-7-7-7-7-7-7-7-|
A|-5-5-5-5-5-5-5-5-8-8-8-8-8-8-8-8-7-7-7-7-7-7-7-7-5-5-5-5-5-5-5-5-|
E|-----------------6-6-6-6-6-6-6-6-5-5-5-5-5-5-5-5-----------------|

Eto na.. eto na.. eto na.. eto na.. Ahhhhhhhhhh!!       DO-BI!!
e|---------------------------5-------------------------------------|
B|------------------5--------5-------------------------------------|
G|---------6--------6--------6--------6-6-6-6-6-6-6-x--------------|
D|-7-------7--------7--------7--------7-7-7-7-7-7-7-x--------------|
A|-7-------7--------7--------7--------7-7-7-7-7-7-7-x--------------|
E|-5-------5--------5--------5--------5-5-5-5-5-5-5-x--------------|

repeat:
chorus
then
outro:
e|---------------------|
B|--------- 9b- 9b- 9b-|
G|-7-7-7-7-12b-12b-12b-|(repeat 4x)
D|-7-7-7-7-------------|
A|-5-5-5-5-------------|
E|---------------------|

Eto na.. eto na.. eto na.. Ahhhhhhh!!
e|----------------------------------------|
B|-------------------5--------------------|
G|----------6--------6--------6-6-6-6-6-6-|
D|-7--------7--------7--------7-7-7-7-7-7-|
A|-7--------7--------7--------7-7-7-7-7-7-|
E|-5--------5--------5--------5-5-5-5-5-5-|

END!!

yun lng poh ty..

| x  Mute note
| PM palm mute
===============================================================================

 
 
Kamikazee - Doo Bidoo Tab :: indexed at Ultimate Guitar.
Doo Bidoo tabs @ 911Tabs

About the artist behind Doo Bidoo Tab:

Kamikazee is a rock band from the Philippines composed of Jay Contreras (Lead Vocalist), Jomal Linao (Guitars/Back-up Vocals), Led Zeppelin Tuyay (Guitars), Jason "Puto" Astete (Bass Guitar) and Allan "Bords" Burdeos (drums).

Indexed at Wikipedia.

Show us your talent, perform Doo Bidoo Tab!

Here you can post a video or audio performance. Tell me more ...
Where can we find your performance? Tell me more ...
Your comment:
Please, log in to post your performance.