Artists by letter: A B C D E F G H I J K L M N O P Q R S T U V W X Y Z 0-9

 
Burnin Up Tab
Tabbed by: Rebecca
Email: [email protected]

Verse:
e|-------------------------|
B|-------------------------|
G|-4--44-7--77-------------|
D|-4--44-7--77-7--77-5--55-| 2x
A|-2--22-5--55-7--77-5--55-|
E|-------------5--55-3--33-|

Chorus:
*strumming pattern (x:down y:up)
   xxxxyyyyxyx
e|------------------------------------------|
B|------------------------------------------|
G|-44444444447777777777---------------------|
D|-4444444444777777777777777777775555555555-| 2x (for the second round only 
A|-2222222222555555555577777777775555555555-|     strum once in 355xxx)
E|---------------------55555555553333333333-|

Bridge:
e|-------------------------------------------|
B|-------------------------------------------|
G|-4-----------------------------------------|
D|-4-------------7-----------9---7--5---5555-|
A|-2-------------7-----------9---7--5---5555-|
E|---------------5-----------7---5--3---3333-|
     Walk in the room, All I see is you,
e|-----------------------------|
B|-----------------------------|
G|---------------------------5-|
D|----------7----------------5-|
A|----------7----------------3-|
E|----------5------------------|
 staring me down, I know you feel it too

Hope this helps!
Rate and Comment!


 
 
Jonas Brothers - Burnin Up Tab :: indexed at Ultimate Guitar.
Burnin Up tabs @ 911Tabs

About the artist behind Burnin Up Tab:

The Jonas Brothers are an American pop-rock band from Wyckoff, New Jersey made up of three brothers: Kevin, Joe, and Nick Jonas. They have released two albums - It's About Time in 2006, and Jonas Brothers in 2007, and will release A Little Bit Longer in 2008.

Indexed at Wikipedia.

Show us your talent, perform Burnin Up Tab!

Here you can post a video or audio performance. Tell me more ...
Where can we find your performance? Tell me more ...
Your comment:
Please, log in to post your performance.