Artists by letter: A B C D E F G H I J K L M N O P Q R S T U V W X Y Z 0-9

 
Right Here In My Arms Tab
Info:	     /   ->  Slide Up
	        ->  Slide Down
	   |---| ->  Muted
	     ~   ->  Vibrato
           t   ->  Tapping

CLEAN_GUITAR                              
E||----------|------------|------------|-----------|---------|
B||----------|------------|------------|-----------|---------|
G||----------|------------|------------|-----------|---------|
D||----------|------------|------------|-----------|---------|
A||----------|------------|------------|-----------|---------|
E||----------|------------|------------|-----------|---------|

|------|-----|----------------------||-------|----------------|
|------|-----|----------------------||-------|----------------|
|------|-----|----------------------||*------|--5-------------|
|------|-----|------20---20/-------||*--7---|--5----5--------|
|------|-----|------20---20/-------||---7---|--3----5--------|
|------|-----|------20---20/-------||---5---|-------3--------|

SYNTH
|------------|-----------||--------|--------|--------|---------|
|------------|-----------||--------|--------|--------|---------|
|------------|----------*||--------|--------|--------|---------|
|--2---------|----------*||--7-----|--------|--------|---19/---|
|--2---------|-----------||--7-----|--------|--------|---19/---|
|--0---------|-----------||--5-----|--------|--------|---19/---|

Verse1                                        
  KEY (x7)                                                        
|--------------------------|--------------------------|
|--------------------------|--------------------------|
|--------------------------|--------------------------|  
|--------------------------|--------------------------|  
|--7--7--7--7--7--7--7--7--|--7--7--7--7--7--7--7--7--|
|--5--5--5--5--5--5--5--5--|--5--5--5--5--5--5--5--5--|
  |----------------------|   |-----------------------|

|--------------------------|--------------------------|
|--------------------------|--------------------------|
|--------------------------|--------------------------|
|--5--5--5--5--5--5--5--5--|--------------------------|
|--3--3--3--3--3--3--3--3--|--5--5--5--5--5--5--5--5--|
|--------------------------|--3--3--3--3--3--3--3--3--|
  |----------------------|   |----------------------|

SINTH                  3x
|---------------------------|---------------------------||
|---------------------------|---------------------------||
|*--------------------------|--------------------------*||
|*--------------------------|--------------------------*||
|---7--7--7--7--7--7--7--7--|--7--7--7--7--7--7--7--7---||
|---5--5--5--5--5--5--5--5--|--5--5--5--5--5--5--5--5---||
   |----------------------|   |-----------------------|

KEY (x7)                 
|--------------------------|--------------------------|
|--------------------------|--------------------------|
|--------------------------|--------------------------|
|--5--5--5--5--5--5--5--5--|--------------------------|
|--3--3--3--3--3--3--3--3--|--5--5--5--5--5--5--5--5--|
|--------------------------|--3--3--3--3--3--3--3--3--|
  |-----------------------|  |-----------------------|

SYNTH                    3x
|---------------------------|---------------------------||
|---------------------------|---------------------------||
|*--------------------------|--------------------------*||
|*--------------------------|--------------------------*||
|---7--7--7--7--7--7--7--7--|--7--7--7--7--7--7--7--7---||
|---5--5--5--5--5--5--5--5--|--5--5--5--5--5--5--5--5---||
  |------------------------| |-------------------------|

CLEAN_GUITAR
  KEY(x7)     
|--------------------------|--------------------------|
|--------------------------|--------------------------|
|--------------------------|--------------------------|
|--5--5--5--5--5--5--5--5--|--------------------------|
|--3--3--3--3--3--3--3--3--|--5--5--5--5--5--5--5--5--|
|--------------------------|--3--3--3--3--3--3--3--3--|
  |-----------------------|  |-----------------------|

SYNTH                  3x
|---------------------------|---------------------------||
|---------------------------|---------------------------||
|*--------------------------|--------------------------*||
|*--------------------------|--------------------------*||
|---7--7--7--7--7--7--7--7--|--7--7--7--7--7--7--7--7---||
|---5--5--5--5--5--5--5--5--|--5--5--5--5--5--5--5--5---||
  |------------------------|  |-----------------------|

CLEAN_GUITAR
  KEY (x3)                
|--------------------------|--------------------------|
|--------------------------|--------------------------|
|--------------------------|--------------------------|
|--5--5--5--5--5--5--5--5--|--------------------------|
|--3--3--3--3--3--3--3--3--|--5--5--5--5--5--5--5--5--|
|--------------------------|--3--3--3--3--3--3--3--3--|
 |-----------------------|  |------------------------|

|-------------------------|-------------------------|
|-------------------------|-------------------------|
|-------------------------|-------------------------|
|--7----7--7--7--7--7--7--|--2----2--2--2--2--2--2--|
|--7----7--7--7--7--7--7--|--2----2--2--2--2--2--2--|
|--5----5--5--5--5--5--5--|-------------------------|



|-------------------------|------------------------|
|-------------------------|------------------------|
|-------------------------|------------------------|
|--3----3--3--3--3--3--3--|--3--3--3--3--19/-------|
|--3----3--3--3--3--3--3--|--3--3--3--3--19/-------|
|--1----1--1--1--1--1--1--|--1--1--1--1--19/-------|

Chorus
   CLEAN_GUITAR
||-------------------------|------------------------|
||-------------------------|------------------------|
||*------------------------|--5---5--5--------------|
||*--7---7--7--7--7--7--7--|--5---5--5--5-----5--5--|
||---7---7--7--7--7--7--7--|--3---3--3--5-----5--5--|
||---5---5--5--5--5--5--5--|------------3-----3--3--|

3x
|-------------------------|-------------------------||
|-------------------------|-------------------------||
|-------------------------|------------------------*||
|--2----2--2--2--2--2--2--|--3----3--3--5----5--5--*||
|--2----2--2--2--2--2--2--|--3----3--3--5----5--5---||
|-------------------------|--1----1--1--3----3--3---||

SINTH                                                                        
|-----|------|-------|------------|
|-----|------|-------|------------|
|-----|------|-------|------------|
|--7--|------|-------|--19/-------|
|--7--|------|-------|--19/-------|
|--5--|------|-------|--19/-------|

Verse2 
  KEY (x7) 
|--------------------------|--------------------------|
|--------------------------|--------------------------|
|--------------------------|--------------------------|  
|--------------------------|--------------------------|  
|--7--7--7--7--7--7--7--7--|--7--7--7--7--7--7--7--7--|
|--5--5--5--5--5--5--5--5--|--5--5--5--5--5--5--5--5--|
  |----------------------|   |-----------------------|

|--------------------------|--------------------------|
|--------------------------|--------------------------|
|--------------------------|--------------------------|
|--5--5--5--5--5--5--5--5--|--------------------------|
|--3--3--3--3--3--3--3--3--|--5--5--5--5--5--5--5--5--|
|--------------------------|--3--3--3--3--3--3--3--3--|
  |----------------------|   |----------------------|

SINTH                   3x
|---------------------------|---------------------------||
|---------------------------|---------------------------||
|*--------------------------|--------------------------*||
|*--------------------------|--------------------------*||
|---7--7--7--7--7--7--7--7--|--7--7--7--7--7--7--7--7---||
|---5--5--5--5--5--5--5--5--|--5--5--5--5--5--5--5--5---||
   |----------------------|   |-----------------------|

CLEAN_GUITAR
  KEY (x3)                   
|--------------------------|--------------------------|
|--------------------------|--------------------------|
|--------------------------|--------------------------|
|--5--5--5--5--5--5--5--5--|--------------------------|
|--3--3--3--3--3--3--3--3--|--5--5--5--5--5--5--5--5--|
|--------------------------|--3--3--3--3--3--3--3--3--|
  |-----------------------|  |-----------------------|

|-------------------------|-------------------------|
|-------------------------|-------------------------|
|-------------------------|-------------------------|
|--7----7--7--7--7--7--7--|--2----2--2--2--2--2--2--|
|--7----7--7--7--7--7--7--|--2----2--2--2--2--2--2--|
|--5----5--5--5--5--5--5--|-------------------------|



|-------------------------|------------------------|
|-------------------------|------------------------|
|-------------------------|------------------------|
|--3----3--3--3--3--3--3--|--3--3--3--3--19/-------|
|--3----3--3--3--3--3--3--|--3--3--3--3--19/-------|
|--1----1--1--1--1--1--1--|--1--1--1--1--19/-------|

Chorus
   CLEAN_GUITAR
||-------------------------|------------------------|
||-------------------------|------------------------|
||*------------------------|--5---5--5--------------|
||*--7---7--7--7--7--7--7--|--5---5--5--5-----5--5--|
||---7---7--7--7--7--7--7--|--3---3--3--5-----5--5--|
||---5---5--5--5--5--5--5--|------------3-----3--3--|

3x
|-------------------------|-------------------------||
|-------------------------|-------------------------||
|-------------------------|------------------------*||
|--2----2--2--2--2--2--2--|--3----3--3--5----5--5--*||
|--2----2--2--2--2--2--2--|--3----3--3--5----5--5---||
|-------------------------|--1----1--1--3----3--3---||

SOLO
|--------------------------|------------------------|
|--------------------------|------------------------|
|*--4----4--4--4--4--4--4--|--7----7--7-------------|
|*--4----4--4--4--4--4--4--|--7----7--7--7----7--7--|
|---2----2--2--2--2--2--2--|--5----5--5--7----7--7--|
|--------------------------|-------------5----5--5--|

3x
|-------------------------|--------------------------||
|-------------------------|--------------------------||
|-------------------------|-------------------------*||
|--2----4--4--4--4--4--4--|--2----4--4--4--4--4--4--*||
|--2----4--4--4--4--4--4--|--2----4--4--4--4--4--4---||
|-------2--2--2--2--2--2--|-------2--2--2--2--2--2---||

Bridge
|------|-------|-------|-------|-------|-------|
|------|-------|-------|-------|-------|-------|
|------|-------|-------|-------|-------|-------|
|------|-------|-------|-------|-------|-------|
|------|-------|-------|-------|-------|-------|
|------|-------|-------|-------|-------|-------|

|----------------------------|----------------------------------|
|----------------------------|----------------------------------|
|----------------------------|----------------------------------|
|--19/-----------------------|----------------------------------|
|--19/-------7h9p7h9p7h9p7h9p|--7h9p7h9p7h9p7h9p7h9p7h9p7h9p7h9p|
|--19/-----------------------|----------------------------------|

Chorus_End
  CLEAN_GUITAR_2
|--------------------------|------------------------|
|--------------------------|------------------------|
|*-------------------------|--7----7--7-------------|
|*--9----9--9--9--9--9--9--|--7----7--7--7----7--7--|
|---9----9--9--9--9--9--9--|--5----5--5--7----7--7--|
|---7----7--7--7--7--7--7--|-------------5----5--5--|

7x
|--------------------------|-------------------------||-----||
|--------------------------|-------------------------||-----||
|--------------------------|------------------------*||-----||
|--4---4--4--4--4--4--4----|--5----5--5--7----7--7--*||--9--||
|--4---4--4--4--4--4--4----|--5----5--5--7----7--7---||--9--||
|--2---2--2--2--2--2--2----|--3----3--3--5----5--5---||--7--||





CLEAN_GUITAR

E||---------------------------||
B||--------0-----------0------||
G||-----0-----5-----0-----5---||
D||--7-----------7------------||
A||---------------------------||
E||---------------------------||

CLEAN_GUITAR_2

E|-----------------|
B|-0---2-3-0---2-3-|
G|---2-------2-----|
D|-----------------|
A|-----------------|
E|-----------------|

Solo

E||--------------------|--------------------|----------------------|
B||--------------------|--------------------|----------------------|
G||----7~-----6~-------|--------------------|----------------------|
D||--------------------|------9------7~-----|----------------------|
A||--------------------|--------------------|------7---9---9--9----|
E||--------------------|--------------------|----------------------|

|------------------------|------------------------------|
|------------------------|------------------------------|
|------------------------|-----4~-4t4t4t4t4t4t4t4t4t4t4|
|------------------------|------------------------------|
|--9---9~-7---9~---9~-9~-|------------------------------|
|------------------------|------------------------------|

|----------------------------------|----------------------------|
|----------------------------------|----------------------------|
|--6~6t6t6t6t6t6t6t67~7t7t7t7t7t7|--11~---11~---11~-11~---11~-|
|----------------------------------|----------------------------|
|----------------------------------|----------------------------|
|----------------------------------|----------------------------|

|--------------------|-------------------------------------------|
|--------------------|-------------------------------------------|
|--9~-11~---11~-11~--|--11--23~23~23~23~23~23~23~23~23~23~23~23/|
|--------------------|-------------------------------------------|
|--------------------|-------------------------------------------|
|--------------------|-------------------------------------------|

|--------------------------------------------|
|--------------------------------------------|
|--11---21~21~21~21~21~21~21~21~21~21~21~21/|
|--------------------------------------------|
|--------------------------------------------|
|--------------------------------------------|

|--------------------------------------------|
|--------------------------------------------|
|--11---19~19~19~19~19~19~19~19~19~19~19~19/|
|--------------------------------------------|
|--------------------------------------------|
|--------------------------------------------|

|--------------------------------------------|
|--------------------------------------------|
|--11---18~18~18~18~18~18~18~18~18~18~18~18/|
|--------------------------------------------|
|--------------------------------------------|
|--------------------------------------------|

|--------------------------------------------|
|--------------------------------------------|
|--11---16~16~16~16~16~16~16~16~16~16~16~16/|
|--------------------------------------------|
|--------------------------------------------|
|--------------------------------------------|

|-----------------------------------------|---------------------|
|-----------------------------------------|---------------------|
|-11-14~14~14~14~14~14~14~14~14~14~14~14/|-9-11~--11~-11~-11~-|
|-----------------------------------------|---------------------|
|-----------------------------------------|---------------------|
|-----------------------------------------|---------------------|

|-------------------------||
|-------------------------||
|--9~---11~---11~-11~-----||
|-------------------------||
|-------------------------||
|-------------------------||

SYNTH

|-10-8-|-7-5-|-3-1-|
|------|-----|-----|
|------|-----|-----|
|------|-----|-----|
|------|-----|-----|
|------|-----|-----|

KEY

|-0-|
|---|
|---|
|---|
|---|

Verse1

She is smiling like heaven's down on earth
Sun is shining so bright on her
All her wishes have finally come true
Her heart is weeping. This happiness is killing her.
It's right, she's in love

Chorus

She'll be right here in my arms
So in Love
She'll be right here in these arms
She can't let go

Repeat

Verse2

So hard she's trying
But her heart won't turn to stone...oh no
She keeps on crying
But I won't leave her alone
She'll never be alone

Chorus

She'll be right here in my arms
So in Love
She'll be right here in these arms
She can't let go

Repeat

SOLO

Bridge

She'll be right here in my arms
So in Love
She'll be right here in these arms
She can't let go

Chorus_End

She'll be right here in my arms
So in Love
She'll be right here in these arms
She can't let go

Repeat x 7
 
 
Him - Right Here In My Arms Tab :: indexed at Ultimate Guitar.
Right Here In My Arms tabs @ 911Tabs

Quick tip, so you can enjoy Right Here In My Arms Tab even more:

YourChords.com Guitar Chords and Tabs Archive is currently indexing over 240'000 songs from 21'000+ different artists. And new chords just keep on coming in, so you will surely never run out of them.

Show us your talent, perform Right Here In My Arms Tab!

Here you can post a video or audio performance. Tell me more ...
Where can we find your performance? Tell me more ...
Your comment:
Please, log in to post your performance.