Artists by letter: A B C D E F G H I J K L M N O P Q R S T U V W X Y Z 0-9

Welcome To The Jungle Tab (ver 2) - Guns N Roses


 
Welcome To The Jungle Tab
        Tabber: Connor

Key:
         x = to mute
x (with #) = to repeat
        () = Not a nessesary Number
         ^ = Bend
         / = Slide Up
          = Down
         ` = A large number next to eachother  ( Ex. its like two 3's next to
             each other, but instead of, 1212, i put 12`12, think of them together

e----------------------------|
      B----------------------------|
      G-3-3-3-1-3-1--3-3---3-3---3-|
      D-------------3-3-3-1-1-1----|
      A-------------------------4-1|
      E----------------------------|

e-----------------|---------------------------|
      B-----------------|---------------------------|
      G-----------------|----------------6---------3|
      D-8----6----4----1|-8----6----4----6----6----3|
      A-8----6----4----1|-8----6----4----4----6----1|
      E-6----4----2----0|-6----4----2---------4-----|

e-------------------|
      B-------------------|
      G-------------------|
      D-6-6-444-6--4--3--1|x3
      A-6-6-444-6--4--3--0|
      E-4-4-222-4--2--1---|

( High pitch solo thing I could'nt get )

Welcome to the jungle....
     
      e---------------------------|
      B---------------------------|
      G---------------------------|
      D---------------------------|
      A---------------------------|
      E-16-16-14`14`14-16-14-13-11|

e-4-4-222-4--2--1--|
      B-----------------4|
      G------------------|
      D------------------|
      A------------------|
      E------------------|

e--------------------------|
      B--------------------------|
      G---------------6----------|
      D-8-------------6----------|
      A-8-------------4---3--1---|
      E-6---5--4--2-------------4|
  ( The 4 on B i just couldnt find that low of a not on and E )
      
      e------------------|
      B-----------------4|
      G------------------|
      D------------------|
      A------------------|
      E-11`11-9-9-5-4-2--|

e-11-9-5^|
      B--------|
      G--------|
      D--------|
      A--------|
      E-11-9-5-|

Welcome to the jungle....
     
      e---------------------------|
      B---------------------------|
      G---------------------------|
      D---------------------------|
      A---------------------------|
      E-16-16-14`14`14-16-14-13-11|

( in the backround of that ^ )
      e------------------------|
      B-9-7--------------------|
      G------9-7---------------|
      D-----------9-7----------|
      A----------------9-7-----|
      E---------------------9-7|

e---------------------------|
      B---------------------------|
      G---------------------------|
      D---------------------------|
      A---------------------------|
      E-16-16-14`14`14-16-14-13-11|

e-4-4-222-4--2--1--|
      B-----------------4|
      G------------------|
      D------------------|
      A------------------|
      E------------------|
      
      e--------------------------|
      B--------------------------|
      G---------------6----------|
      D-8-------------6----------|
      A-8-------------4---3--1---|
      E-6---5--4--2-------------4|

e------------------|
      B-----------------4|
      G------------------|
      D------------------|
      A------------------|
      E-11`11-9-9-5-4-2--|

Solo:
  
      e-----------------------------------------------|
      B--------------11-----13^---------14^`14^`12/13|
      G-11/12--12-12----12--12^--11/12--13^`13^`11/12|
      D-10/11--11-11----11-------10/11----------------|
      A-----------------------------------------------|
      E-----------------------------------------------|

e-(9)/20--20-18-19--13-14-11------11|
      B------------------------------------|
      G------------------------------------|
      D------------------------------------|
      A------------------------------------|
      E------------------------------------|

e---------------------------|
      B---------------------------|
      G---------------------------|
      D---------------------------|
      A---------------------------|
      E-16-16-14`14`14-16-14-13-11|

e-4-4-222-4--2--1--|
      B-----------------4|
      G------------------|
      D------------------|
      A------------------|
      E------------------|

e--------------------------|
      B--------------------------|
      G---------------6----------|
      D-8-------------6----------|
      A-8-------------4---3--1---|
      E-6---5--4--2-------------4|

e------------------|
      B-----------------4|
      G------------------|
      D------------------|
      A------------------|
      E-11`11-9-9-5-4-2--|
( kind of solo )
      e---------------------------|
      B-10--11--10---6----------11|
      G-10--11--10---6---11-10--11|
      D--x---x---x---x-----------x|
      A--8---9---8---4-----------9|
      E---------------------------|
      
      e-------------------------------------|
      B-------------------------------------|
      G-------------------------------------|
      D--44444--7--44444--7--44444--7--66666|
      A--44444--7--44444--7--44444--7--66666|
      E--22222--5--22222--5--22222--5--44444|

Solo 2 was to hard.

( after hight pitch noise in bongo section )

e----------------------------------|
      B----------------------------------|
      G----------------------------------|
      D----------------------------------|x2
      A----------------------------------|
      E-11`11`11`11`10`10`10`10-9999-8888|

e------------------------------------------------|
      B------------------------------------------------|
      G------------------------------------------------|
      D------------------------------------------------|x6 ( i think )
      A-13`13`13`13`12`12`12`12`11`11`11`11`10`10`10`10|
      E-11`11`11`11`10`10`10`10-9--9---9--9-8---8--8--8|

e-----------------------|
      B-----------------------|
      G-----------------------|
      D-10-9-10-11-14-13-14-16|
      A-8--7--8-9--12-11-12-14|
      E-----------------------|
   -----------------------------------
   |   e--------------------------|  |
   |   B--------------------------|  |
   |   G---------------6----------|  |
   |   D-8-------------6----------|  |
   |   A-8-------------4---3--1---|  |
   |   E-6---5--4--2-------------4|  |
   |                                 |
   |   e------------------|   _______|
   |   B-----------------4|   |
   |   G------------------|   |
   |   D------------------|   |
   |   A------------------|   | reapeat that hole thing 4 times and then...
   |   E-11`11-9-9-5-4-2--|   |
   |                          |
   ---------------------------|
       e---------------------------------------|
       B---------------------------------------|
       G---------------------------------------|
       D--------------------------------------1|
       A-13-11--8--6--4--1----6--4--1---------1|
       E-11--9--6--4--2--0----4--2--0---------0|

please vote!!!
 
 
Guns N Roses - Welcome To The Jungle Tab :: indexed at Ultimate Guitar.
Welcome To The Jungle tabs @ 911Tabs

Quick tip, so you can enjoy Welcome To The Jungle Tab even more:

Try out the AutoScroller option ... It scrolls the page for you, so you can totally focus on nailing that solo. You can choose among different speeds using your mouse or your keyboard (keys 0, 1, 2 and 3).

Show us your talent, perform Welcome To The Jungle Tab!

Here you can post a video or audio performance. Tell me more ...
Where can we find your performance? Tell me more ...
Your comment:
Please, log in to post your performance.