Artists by letter: A B C D E F G H I J K L M N O P Q R S T U V W X Y Z 0-9

 
Paradise City Tab
GUNS N ROSES - PARADISE CITY

ALBUM - APPETITE FOR DESTRUCTION

Intro & First Chorus
    Moderately Q=104
   4/4
    Gtr I
     Q  S S S S +S  S E S S S S   S S S S S S S S +S  S E S S S S
||--^3--3-----3-(3)-----3-------|---------3-----3-(3)-----3-------|
||o-^0----0---------0-----0---0-|-1---------1---------1-----1---1-|
||--^0------0---------0-----0---|-0-----------0---------0-----0---|
||--^0--------------------------|-0h2---2-------------------------|
||o-^2--------------------------|-----3---------------------------|
||--^3--------------------------|---------------------------------|

S E S S S S S S S S S S S S S   E. S S S E +S  S T T S S S T T S  4x
|-------3---------------3-------|----3-----3-(3)--------------------||
|-1---1---1---1-1-----1---1---0-|-0----0---------0-----0---0-------o||
|-0h2-------2---0-----------0---|-0------0---------0h2---0-------0--||
|-0h3-----------0h2-------------|-0--------------------------0h2----||
|-------------------3-----------|-2--------------------------------o||
|-------------------------------|-3---------------------------------||

G5         C5    C          F5    F     C5  C           G5
    Gtr II
     H..       S S    H..       S S    Q.   S S  Q.   S S    H..       S S
     |         | |    |         | |    |    | |  |    | |    |         | |
     /         / /    /         / /    /    / /  /    o /    /         / /

Gtr V
     W                W                H         H           W
||--15-------------|----------------|-13--------17--------|-15--------------||
||o----------------|-13-------------|---------------------|-15-------------o||
||-----------------|----------------|---------------------|-----------------||
||-----------------|----------------|---------------------|-----------------||
||o----------------|----------------|---------------------|----------------o||
||-----------------|----------------|---------------------|-----------------||

G5                                           C5      C                                            F5
     H..                                          S  S    H..                                          S  S
     |                                            |  |    |                                            |  |
     /                                            /  /    /                                            /  /

Gtr III
                ~~                                                   ~~
     S    S  S  S  +E   S  S  S  E.    S     +S   S  S    S    S  S  S  +E   S  S  S  E.    S     +S   S  S
||-----------------------------------------------------|---------------------------------------------------|
||o--------------------------15------------------------|--------------------------15-----------------------|
||----------12-12-(12)----------14b16-14b16r(14)-12----|---------12-12-(12)----------14b16-14b16r(14)-12---|
||--12h==14------------14-12------------------------14-|-12h==14------------14-12------------------------14|
||o----------------------------------------------------|---------------------------------------------------|
||-----------------------------------------------------|---------------------------------------------------|

1.
  F            C5  C                     G5
   Q.          S S  Q.             S S    H..        S S
   |           | |  |              | |    |          | |
   /           / /  /              o /    /          / /

~~~~~
   Q      Q         Q    S     +S  S S    W
|--------------------------------------|------------------||
|-13b15--13b15-----13---10b12r(10)-8---|-10b12-----------o||
|------------------------------------9-|------------------||
|--------------------------------------|------------------||
|--------------------------------------|-----------------o||
|--------------------------------------|------------------||

2.
  F             C5   C
   Q.           S  S  Q.       S  S
   |            |  |  |        |  |
   /            /  /  /        o  /

-------------------------------------
   Q      E.       S  E   Q    S  S
|-----------------15----------------|
|-13b15--13b15=======13r(13)--12h13-|
|-----------------------------------|
|-----------------------------------|
|-----------------------------------|
|-----------------------------------|

G5
   H..       S S     W
   |         | |
   /         / /

Gtrs II, III
 ----------------------------------------|
   W                 E S S E S S S S S S S E.
|----------------||---------------------------|
|-12-------------||o--------------------------|
|----------------||------------------------3--|
|----------------||----------------------5-3--|
|----------------||o-5-3-4-5-3-4-5-3-5-3-5-1--|
|----------------||--3-1-2-3-1-2-3-1-3-1-3----|

--------------------|        ~M------------------|      ~M--------|
  E S S E S S S S S S S E.   E S S E S S S S S S S E.   E S S E S S e e S E.
|--------------------------|--------------------------|----------------------||
|--------------------------|--------------------------|----------------------||
|---------------------5-3--|-----------------------3--|-----------------5-3--||
|---------------------5-3--|---------------------5-3--|-------------5-3-5-3--||
|-5-3-4-5-3-4-5-3-5-3-3-1--|-5-3-4-5-3-4-5-3-5-3-5-1--|-5-3-4-5-3-4-5-3-3-1--||
|-3-1-2-3-1-2-3-1-3-1------|-3-1-2-3-1-2-3-1-3-1-3----|-3-1-2-3-1-2-3-1------||

1st &2nd Verses
  Gtr II
  ~ PM------------------|
  E S S S S S S S S S S S E.
|-----------------------------------|
|-------------------------3---------|
|-------------------------3---------|
|-------------------------3---------|
|-------------------------1---------|
|-3-1-2-3-3-1-2-3-1-3-1-3-----------|
|
| Gtr III
| PM--------------------|
| E S S S S S S S S S S S E     +S
|-----------------------------------|
|-----------------------------------|
|-------------------------3b3.5-(3)-|
|-5-3-4-5-5-3-5-----5-5-5-----------|
|-----------------5-----------------|
|-----------------------------------|

~ PM----------------|               ~ PM------------------|
  E S S S S S S S S S S S E.          E S S S S S S S S S S S E.
|-----------------------------------|-----------------------------------|
|-----------------------5-3---------|-------------------------3---------|
|-----------------------5-3---------|-------------------------3---------|
|-----------------------5-3---------|-------------------------3---------|
|-----------------------3-1---------|-------------------------1---------|
|-3-1-2-3-3-1-2-3-1-3-1-------------|-3-1-2-3-3-1-2-3-1-3-1-3-----------|
|
| PM------------------|               PM--------------------|
| E S S S S S S S S S S S E     +S    E S S S S S S S S S S S E     +S
|-----------------------------------|-----------------------------------|
|-----------------------------------|-----------------------------------|
|-----------------------5-3b3.5-(3)-|-------------------------3b3.5-(3)-|
|-5-3-4-5-5-3-5-----5-5-------------|-5-3-4-5-5-3-5-----5-5-5-----------|
|-----------------5-----------------|-----------------5-----------------|
|-----------------------------------|-----------------------------------|

2/4            4/4
  ~ PM|
  E S S S E.     W
|--------------|----------------------------|
|---------3----|-5--------------------------|
|---------3----|-5--------------------------|
|---------3----|-5--------------------------|
|---------1----|-3--------------------------|
|-3-1-2-3------|----------------------------|
|
| PM---------|
| e e   e    e   Q     +E  +E     +E  +Q.
|--------------|----------------------------|
|--------------|----------------------------|
|--------------|-5b7===(5)r(5)b7==(5)r(5)---|
|-5-3---5----3-|----------------------------|
|--------------|----------------------------|
|--------------|----------------------------|

~~~~~~
  S    +S   S  S S    S  S S +Q    Q
|----------------------------------------||
|---------------------------------------o||
|----------------------------------------||
|----------------------------------------||
|-3b4==(3)r(3)-1-3----1-----------------o||
|------------------------1-3-(3)--(3)/---||
|
| S    +S  +S  S S   +S  S S +Q   +Q
|----------------------------------------||
|---------------------------------------o||
|-5b6==(5)r(5)-3-5b6r(5)-3---------------||
|--------------------------5-(5)--(5)/---||
|---------------------------------------o||
|----------------------------------------||

Chorus
    G5        C5    C         F5      F     C5  C          G5
    Gtr II
    H..       S S   H..        S  S    Q.   S S Q.   S S   H..       S S
    |         | |   |          |  |    |    | | |    | |   |         | |
    /         / /   /          /  /    /    / / /    o /   /         / /

Gtr III
              PM|              PM|          PM|      PM|
    H..       S S   H..        S  S    Q.   S S Q.   S S   H..       S S
||--3-------------|-----------------|--------------------|-3---------3-3--||
||o-3-------------|-5---------------|-10--------5--------|-3---------3-3-o||
||--0---------5-5-|-5---------10-10-|-10----5-5-5--------|-0---------0-0--||
||--0---------5-5-|-5---------10-10-|-10----5-5-5--------|-0---------0-0--||
||o-x---------3-3-|-3----------8--8-|--8----3-3-3--------|-x---------x-x-o||
||--3-------------|-----------------|----------------3-3-|-3---------3-3--||

Gtrs II, III
  ~M-------------------------------------------|
  E S S E S S S S S S S E.   E S S E S S S S S S S E.
|--------------------------|--------------------------|
|--------------------------|--------------------------|
|-----------------------3--|---------------------5-3--|
|---------------------5-3--|---------------------5-3--|
|-5-3-4-5-3-4-5-3-5-3-5-1--|-5-3-4-5-3-4-5-3-5-3-3-1--|
|-3-1-2-3-1-2-3-1-3-1-3----|-3-1-2-3-1-2-3-1-3-1------|

~M------------------|      ~M--------|
  E S S E S S S S S S S E.   E S S E S S e e S E.
|--------------------------|-----------------------|
|--------------------------|-----------------------|
|-----------------------3--|-----------------5-3---|
|---------------------5-3--|-------------5-3-5-3---|
|-5-3-4-5-3-4-5-3-5-3-5-1--|-5-3-4-5-3-4-5-3-3-1---|
|-3-1-2-3-1-2-3-1-3-1-3----|-3-1-2-3-1-2-3-1-------|

3rd Verse
  $
  Gtr II
  ~ PM------------------|
  E S S S S S S S S S S S E.
|-----------------------------------|
|-------------------------3---------|
|-------------------------3---------|
|-------------------------3---------|
|-------------------------1---------|
|-3-1-2-3-3-1-2-3-1-3-1-3-----------|
|
| Gtr III
| PM--------------------|
| E S S S S S S S S S S S E     +S
|-----------------------------------|
|-----------------------------------|
|-------------------------3b3.5-(3)-|
|-5-3-4-5-5-3-5-----5-5-5-----------|
|-----------------5-----------------|
|-----------------------------------|
|
| Gtr IV
| ~     ~                 ~~~~~~~~~~~
| E S S E   S S S S S S S E.
|-----------------------------------|
|-------------------------3---------|
|-4-2-3-4---2-3-4-2-4-2-4-----------|
|-----------------------------------|
|-----------------------------------|
|-----------------------------------|

~ PM----------------|                  ~ PM------------------|
  E S S S S S S S S S S S    E.          E S S S S S S S S S S S E.
|--------------------------------------|-----------------------------------|
|-----------------------5----3---------|-------------------------3---------|
|-----------------------5----3---------|-------------------------3---------|
|-----------------------5----3---------|-------------------------3---------|
|-----------------------3----1---------|-------------------------1---------|
|-3-1-2-3-3-1-2-3-1-3-1----------------|-3-1-2-3-3-1-2-3-1-3-1-3-----------|
|
| PM------------------|                  PM--------------------|
| E S S S S S S S S S S S    E     +S    E S S S S S S S S S S S E     +S
|--------------------------------------|-----------------------------------|
|--------------------------------------|-----------------------------------|
|-----------------------5----3b3.5-(3)-|-------------------------3b3.5-(3)-|
|-5-3-4-5-5-3-5-----5-5----------------|-5-3-4-5-5-3-5-----5-5-5-----------|
|-----------------5--------------------|-----------------5-----------------|
|--------------------------------------|-----------------------------------|
|
|~~~    ~                                ~     ~                 ~~~~~
| E S S E   S S S S S S S   +E.          E S S E   S S S S S S S E.
|--------------------------------------|-----------------------------------|
|-----------------------3b5r(3)--------|-------------------------3---------|
|-4-2-3-4---2-3-4-2-4-2----------------|-4-2-3-4---2-3-4-2-4-2-4-----------|
|--------------------------------------|-----------------------------------|
|--------------------------------------|-----------------------------------|
|--------------------------------------|-----------------------------------|

2/4            4/4
  ~ PM|
  E S S S E.     W
|--------------|-----------------------------|
|---------3----|-5---------------------------|
|---------3----|-5---------------------------|
|---------3----|-5---------------------------|
|---------1----|-3---------------------------|
|-3-1-2-3------|-----------------------------|
|
| PM---------|
| e e   e    e   Q     +E  +E     +E  +Q.
|--------------|-----------------------------|
|--------------|-----------------------------|
|--------------|-5b7===(5)r(5)b7==(5)r(5)----|
|-5-3---5----3-|-----------------------------|
|--------------|-----------------------------|
|--------------|-----------------------------|
|
| ~
| E S S E    E   Q      Q          Q      Q
|--------------|--------------------------0--|
|--------------|-------------------1---------|
|-4-2-3-4----2-|--------0--------------------|
|--------------|-2---------------------------|
|--------------|-----------------------------|
|--------------|-----------------------------|

~~~~~~~
  S    +S   S  S S    S  S S +Q     Q
|----------------------------------------|
|----------------------------------------|
|----------------------------------------|
|----------------------------------------|
|-3b4==(3)r(3)-1-3----1------------------|
|------------------------1-3-(3)---(3)/--|
|
| S    +S  +S  S S   +S  S S +Q    +Q
|----------------------------------------|
|----------------------------------------|
|-5b6==(5)r(5)-3-5b6r(5)-3---------------|
|--------------------------5-(5)---(5)/--|
|----------------------------------------|
|----------------------------------------|
|
| S    +S  +S  S S    S  S S +Q     Q
|----------------------------------------|
|-5b7==(5)r(5)-3-5----3------------------|
|------------------------3-4-(4)--------|
|----------------------------------------|
|----------------------------------------|
|----------------------------------------|

Chorus
  Gtrs II, III
            PM|              PM|          PM|      PM|
  H..       S S   H..        S  S    Q.   S S Q.   S S   H..       S S
|-3-------------|-----------------|--------------------|-3---------3-3--|
|-3-------------|-5---------------|-10--------5--------|-3---------3-3--|
|-0---------5-5-|-5---------10-10-|-10----5-5-5--------|-0---------0-0--|
|-0---------5-5-|-5---------10-10-|-10----5-5-5--------|-0---------0-0--|
|-x---------3-3-|-3----------8--8-|--8----3-3-3--------|-x---------x-x--|
|-3-------------|-----------------|----------------3-3-|-3---------3-3--|

To Coda
            PM|              PM|          PM|
  H..       S S   H..        S  S    Q.   S S H      S E. +H        E   E
|-3-------------|-----------------|----------------|------------------------||
|-3-------------|-5---------------|-10--------5----|------------------------||
|-0---------5-5-|-5---------10-10-|-10----5-5-5----|------------------------||
|-0---------5-5-|-5---------10-10-|-10----5-5-5----|------------------------||
|-x---------3-3-|-3----------8--8-|--8----3-3-3----|------------------------||
|-3-------------|-----------------|----------------|-3-1--(1)----/(13)s(1)--||

Guitar Solo
                  ~
  E Q       +E    Q       S S  S S   E.    +S  E.   S Q       S   +S  E
|----------------------------------|------------------------------------|
|----------------------------------|------------------------------------|
|-------------------------3--------|-5b7---(5)-3----3---------5b7r(5)-3-|
|-3-3b5-----(3)---5---------5--3---|------------------5-----------------|
|--------------------------------5-|------------------------------------|
|----------------------------------|------------------------------------|
|
| Gtr II
|-----------------------------------------------------------|
| E S   S E  S  S S S S S S E.       E   S  S  E  S S S S S S S    E.
|----------------------------------|------------------------------------|
|----------------------------------|------------------------------------|
|---------------------------3------|--------------------------5----3----|
|-------------------------5-3------|--------------------------5----3----|
|-5-3---4-5--3--4-5-3-5-3-5-1------|-5---3--4--5--3-4-5-3-5-3-3----1----|
|-3-1---2-3--1--2-3-1-3-1-3--------|-3---1--2--3--1-2-3-1-3-1-----------|

|--3---|
  Q     +E  E   E    Q       E    E       E  +E    S S S  S +Q..        S
|---------------1------------6---------|---------------5--------------------|
|-----------3-------/6-----------------|-----------------/8-(8)---------8---|
|-5-----(5)-----------------------5b7==|=(5)r(5)---3h4----------------------|
|--------------------------------------|------------------------------------|
|--------------------------------------|------------------------------------|
|--------------------------------------|------------------------------------|
|
| ~M-----------------------------------------------------|
| E S S  E    S   S  S S S S S E.         E   S  S E   S  S  e   e S E.
|--------------------------------------|------------------------------------|
|--------------------------------------|------------------------------------|
|------------------------------3-------|---------------------------5-3------|
|----------------------------5-3-------|---------------------5---3-5-3------|
|-5-3-4--5----3---4--5-3-5-3-5-1-------|--5---3--4-5---3--4--5---3-3-1------|
|-3-1-2--3----1---2--3-1-3-1-3---------|--3---1--2-3---1--2--3---1----------|

PM------|           ~
  E    S S S     +S  S S E     S S S    +S  S S   S S S S S S S S S   +S  S S +Q
|------5-8--------------------------------------|------------------------------------|
|-8b10-----8pb10r(8)-5-8-------5-8--------------|------------------------------------|
|------------------------7b9-------7pb9r(7)-5---|-7-5--------------------------------|
|---------------------------------------------7-|-----7-5----------------------------|
|-----------------------------------------------|---------7-6-5-3-5b7r(5)-3----------|
|-----------------------------------------------|---------------------------5-(5)----|
|
| Gtrs II, IV
|----------------------------------|              ~M----------------------------------
| E    S S E         S S S   S S S S     E.       E   S S E   S S S    S  S S  S  E.
|-----------------------------------------------|------------------------------------|
|-----------------------------------------------|------------------------------------|
|----------------------------------------5------|------------------------------7--5--|
|----------------------------------7-----5------|------------------------------7--5--|
|-7----5-6-7---------5-6-7---5-7-5-7-----3------|-7---5-6-7---5-6-7----5--7-5--5--3--|
|-5----3-4-5---------3-4-5---3-5-3-5------------|-5---3-4-5---3-4-5----3--5-3--------|

2/4
              |--3--|                  |-3-|               |-3-|
  Q       +E  S S   S Q         +E     S S S   Q       +E  S S S
|-------------3------------------------3-----|-------------3------||
|-5b6-----(5)---3-----5b6-------(5)------3---|-5b6-----(5)---3----||
|-5b6-----(5)-------3-5b6-------(5)--------3-|-5b6-----(5)-----3--||
|--------------------------------------------|--------------------||
|--------------------------------------------|--------------------||
|--------------------------------------------|--------------------||
|
|----------------------------------------------------------|
| E   S S  E  S   S   S   S S S  S  E.         E   S S  E  E
|--------------------------------------------|--------------------||
|--------------------------------------------|--------------------||
|-----------------------------------3--------|--------------------||
|--------------------------------5--3--------|----------5--3------||
|-5---3-4--5--3---4---5---3-5-3--5--1--------|-5---3-4--5--3------||
|-3---1-2--3--1---2---3---1-3-1--3-----------|-3---1-2--3--1------||

C                  D5
 4/4
  Gtrs II, IV
  W                   S  S  S  S  E    S  S  S  S  S  S  E    S S
  |                   |  |  |  |  |    |  |  |  |  |  |  |    | |
  /                   /  /  /  /  /    x  x  /  /  /  /  /    x x

Gtr III
  H    E Q  S  S      S  S  S  S  S  S S  S  S  S  S  S  S  S S S
|----------------||-----10----------10---------10----------10-----|
|-5----5---------||o----------------------------------------------|
|-5------5----10h||==11----12-10h11------10h11----12-10h11------8h|
|----------------||-----------------------------------------------|
|----------------||o----------------------------------------------|
|----------------||-----------------------------------------------|

C5
  S S  S S E    S S S  S  S S E    S  S
  | |  | | |    | | |  |  | | |    |  |
  / /  / / /    x x /  /  / / /    x  x

S S  S S S  S S S S  S  S S S  S S  S
|---8--------10-------10--------10---------|
|------------------------------------------|
|-9---10-8h9------8h9----10-8h9------10h===|
|------------------------------------------|
|------------------------------------------|
|------------------------------------------|

D5
   S  S  S  S  E    S  S  S  S  S  S  E    S S
   |  |  |  |  |    |  |  |  |  |  |  |    | |
   /  /  /  /  /    x  x  /  /  /  /  /    x x

S  S  S  S  S  S S  S  S  S  S  S  S  S S S
|----10----------10---------10----------10-----|
|----------------------------------------------|
|-11----12-10h11------10h11----12-10h11------8h|
|----------------------------------------------|
|----------------------------------------------|
|----------------------------------------------|

1.                                         2.
                                                                    D.S. al Coda
  C5                                        C5
  S S  S S E    S S S  S  S S E    S  S     S S  S S E    S S S S  S S  E   S S
  | |  | | |    | | |  |  | | |    |  |     | |  | | |    | | | |  | |  |   | |
  / /  / / /    x x /  /  / / /    x  x     / /  / / /    x x / /  / /  /   x x

S S  S S S  S S S S  S  S S S  S S  S     S S  S S S S  S S S E.     +Q
|---8--------10-------10--------10-------||---8--------8--------6------(6)------||
|---------------------------------------o||---------------------6------(6)------||
|-9---10-8h9------8h9----10-8h9------10--||-9---10-8h9---10-6h7------------------||
|----------------------------------------||--------------------------------------||
|---------------------------------------o||--------------------------------------||
|----------------------------------------||--------------------------------------||

&
        PM|      PM|                                                                    PM|
   Q.   S S Q.   S S   H..       S S    H..                                             S  S
|--------------------|-3---------3-3-|--3----------------------------------------------------|
|-10--------5--------|-3---------3-3-|--3----------------------------------------------------|
|-10----5-5-5--------|-0---------0-0-|--0-----------------------------------------------5--5-|
|-10----5-5-5--------|-0---------0-0-|--0-----------------------------------------------5--5-|
|--8----3-3-3--------|-x---------x-x-|--x-----------------------------------------------3--3-|
|----------------3-3-|-3---------3-3-|--3----------------------------------------------------|
|
| Gtr II
|                                                  ~~
|  W                   W                S    S  S  S  +E   S  S  S     E.    S     +S   S  S
|--------------------|---------------|-------------------------------------------------------|
|--------------------|---------------|--------------------------15---------------------------|
|--------------------|---------------|---------12-12-(12)-------------14b16-14b16r(14)-12----|
|--------------------|---------------|-12h==14------------14-12---------------------------14-|
|--------------------|---------------|-------------------------------------------------------|
|--------------------|---------------|-------------------------------------------------------|
|
| Gtr IV
|                                                  ~~~~~~~
|  W                   W                S    S  S  S  +E   S  S  S     E.    S     +S   S  S
|--------------------|---------------|--------------------------------15---------------------|
|--------------------|---------------|--------------------------15b17------------------------|
|--------------------|---------------|---------12-12-(12)-------------------14b16r(14)-12----|
|--------------------|---------------|-12h==14------------14-12---------------------------14-|
|--------------------|---------------|-------------------------------------------------------|
|--------------------|---------------|-------------------------------------------------------|

PM|
   H..                                             S  S
|--------------------------------------------------------|
|--5-----------------------------------------------------|
|--5----------------------------------------------10-10--|
|--5----------------------------------------------10-10--|
|--3-----------------------------------------------8--8--|
|--------------------------------------------------------|
|
|             ~~
|  S    S  S  S  +E   S  S  S  E.       S     +S   S  S
|--------------------------------------------------------|
|--------------------------15----------------------------|
|---------12-12-(12)----------14b16----14b16r(14)-12-----|
|-12h==14------------14-12---------------------------14--|
|--------------------------------------------------------|
|--------------------------------------------------------|
|
|             ~~~~~~~
|  S    S  S  S  +E   S  S  S  E     S  S     +S   S  S
|-----------------------------------15-------------------|
|---------13-13-(13)----------15b17----15b17r(15)-13-----|
|-12h==14------------14-12---------------------------13--|
|--------------------------------------------------------|
|--------------------------------------------------------|
|--------------------------------------------------------|

PM|                 PM|
   Q.          S S  Q.             S S    H..                                                 S  S
|--------------------------------------|--3---------------------------------------------------3--3-|
|-10----------------5------------------|--3---------------------------------------------------3--3-|
|-10-----------5-5--5------------------|--0---------------------------------------------------0--0-|
|-10-----------5-5--5------------------|--0---------------------------------------------------0--0-|
|--8-----------3-3--3------------------|--x---------------------------------------------------x--x-|
|----------------------------------3-3-|--3---------------------------------------------------3--3-|
|
|                                         ~~~~~
|  Q      Q         Q    S     +S  S S    W
|--------------------------------------|-----------------------------------------------------------|
|-13b15--13b15-----13---10b12r(10)-8---|-10b12-----------------------------------------------------|
|------------------------------------9-|-----------------------------------------------------------|
|--------------------------------------|-----------------------------------------------------------|
|--------------------------------------|-----------------------------------------------------------|
|--------------------------------------|-----------------------------------------------------------|
|
|  W                                      E     S  S     +S   S  E     S  E     S  S      S   S  S
|--------------------------------------|-----------------------------------------------------------|
|--------------------------------------|-------15------------15-------15-------15------------------|
|--------------------------------------|-14b16----14b16-(14)----14b16----14b16----14b16r(14)p12----|
|--------------------------------------|--------------------------------------------------------14-|
|--------------------------------------|-----------------------------------------------------------|
|--------------------------------------|-----------------------------------------------------------|

PM|                                                   PM|
  H..                                           S  S   H..                                            S  S
|-3--------------------------------------------------|------------------------------------------------------|
|-3--------------------------------------------------|-5----------------------------------------------------|
|-0---------------------------------------------5--5-|-5---------------------------------------------10-10--|
|-0---------------------------------------------5--5-|-5---------------------------------------------10-10--|
|-x---------------------------------------------3--3-|-3----------------------------------------------8--8--|
|-3--------------------------------------------------|------------------------------------------------------|
|
| W                                                    W
|----------------------------------------------------|------------------------------------------------------|
|----------------------------------------------------|------------------------------------------------------|
|----------------------------------------------------|------------------------------------------------------|
|----------------------------------------------------|------------------------------------------------------|
|----------------------------------------------------|------------------------------------------------------|
|----------------------------------------------------|------------------------------------------------------|
|
|            ~~~~~~~                                              ~~~~~~~
| S    S  S  S  +E   S  S  S     E.  S     +S   S  S   S    S  S  S  +E   S  S S  E     S  S     +S   S  S
|-------------------------------15-------------------|---------------------------------15-------------------|
|-------------------------15b17----------------------|--------13-13-(13)---------15b17----15b17r(15)-13-----|
|--------12-12-(12)-----------------14b16r(14)-12----|12h==14------------14-12--------------------------13h=|
|12h==14------------14-12-------------------------14-|------------------------------------------------------|
|----------------------------------------------------|------------------------------------------------------|
|----------------------------------------------------|------------------------------------------------------|

PM|       PM|
   Q.          S S  Q.   S S    W                     +W
|----------------------------|--3------------------|--(3)----|
|-10----------------5--------|--3------------------|--(3)----|
|-10-----------5-5--5--------|--0------------------|--(0)----|
|-10-----------5-5--5--------|--0------------------|--(0)----|
|--8-----------3-3--3--------|--x------------------|--(x)----|
|------------------------3-3-|--3------------------|--(3)----|
|
|      ~~~~~~~~
|  S   E.  +Q       H           H           H         +W
|-----13--(13)-----12--------|---------------------|---------|
|------------------13--------|-12pb13=====(12)r----|-(12)----|
|-14---------------12--------|---------------------|---------|
|----------------------------|---------------------|---------|
|----------------------------|---------------------|---------|
|----------------------------|---------------------|---------|

+W           +W                   +W           +W
|-(3)--------|-(3)---------------|--(3)--------|-(3)----||
|-(3)--------|-(3)---------------|--(3)--------|-(3)----||
|-(0)--------|-(0)---------------|--(0)--------|-(0)----||
|-(0)--------|-(0)---------------|--(0)--------|-(0)----||
|-(x)--------|-(x)---------------|--(x)--------|-(x)----||
|-(3)--------|-(3)---------------|--(3)--------|-(3)----||
|
|  W            H         +H         W            W
|------------|-------------------|-------------|--------||
|--x/--------|-12pb13r===(12)----|-(12)--------|--x/----||
|--x/--------|-------------------|-------------|--x/----||
|--x/--------|-------------------|-------------|--x/----||
|--x/--------|-------------------|-------------|--x/----||
|------------|-------------------|-------------|--------||

Double Time Q=208
    G5
    Gtrs II, IV
    Q  E E E Q   E   E E E E E Q       E
    |  | | | |   |   | | | | | |       |
    /  / / / /   /   / / / / / /       /

Gtr III
    ~      ~
    Q  E E Q   E E   E E E E E Q      +E
||-----------------|----------------------|
||o----------------|----------------------|
||-----------------|-----------3b3.5--(3)-|
||--5--3-4-5---3-4-|-5-3-5-3-5------------|
||o----------------|----------------------|
||-----------------|----------------------|

C5
  Q  E E E Q   E   E E E E E Q       E
  |  | | | |   |   | | | | | |       |
  /  / / / /   /   / / / / / /       /

~      ~
  Q  E E Q   E E   E E E E E Q      +E
|----------------|-----------------------|
|----------------|-----------------------|
|----------------|-----------3b3.5--(3)--|
|-5--3-4-5---3-4-|-5-3-5-3-5-------------|
|----------------|-----------------------|
|----------------|-----------------------|

F5                C5
  W                  W
  |                  |
  /                  /

~
  Q  E E E E E  E   +Q   E E E E E E
|-----------------|----------------------|
|-----------------|----------------------|
|--------------/5-|-(5)--3-4-5-3-5-3b3.5-|
|-3--1-2-3-0-3----|----------------------|
|-----------------|----------------------|
|-----------------|----------------------|

G5(type 2)
   Q      E E Q.    E   E E E E Q       E E
   |      | | |     |     |   | |       | |
   /      / / /     /     /   / /       / /

~~          PM--|
   E  +E  E E Q   E E   E E E E E   +E  E E
|---------------------|----------------------||
|---------------------|---------------------o||
|-(3)-(3)---------3---|-5-3-----3b4-(3)------||
|---------5-3-5-----5-|-----5-3---------5-3--||
|---------------------|---------------------o||
|---------------------|----------------------||

G5
  Q  E E E Q  E    E  E E E E Q   E
  |  | | | |  |    |  | | | | |   |
  /  / / / /  /    /  / / / / /   /

~           ~~~~~~~~        ~~
  H      E Q  E    Q    Q   E Q.
|---------------|-------------------|
|---------------|-------------------|
|--------3------|-----------3-------|
|-5--------5--5-|-(5)---3-----5-----|
|---------------|-------------------|
|---------------|-------------------|

C5
  Q         E  E E     Q      E   E     E   E  E E Q  E
  |         |  | |     |      |   |     |   |  | | |  |
  /         /  / /     /      /   /     /   /  / / /  /

~
  E    +E  +E  E E    +E  +E  E   E    +E  +E  E H
|-------------------------------|-----------------------|
|-5b6==(5)r(5)-3-5b6==(5)r(5)-3-|-5b6==(5)r(5)-3-5------|
|-5b6--(5)-(5)-3-5b6--(5)-(5)-3-|-5b6--(5)-(5)-3-5------|
|-------------------------------|-----------------------|
|-------------------------------|-----------------------|
|-------------------------------|-----------------------|

F5            C5             G5(type 2)
  W              W              Q           E E Q.    E   E E E E Q      E E
  |              |              |           | | |     |     |   | |      | |
  /              /              /           / / /     /     /   / /      / /

~~
  H.      E E   +H..       E   +E       +E  E E Q   E E   E E E E E +E   Q
|-------------|--------------|--------------------------|--------------------|
|-6-------x-5-|-(5)--------3-|-(3)b3.5==(3)---------3---|---------3-(3)-----|
|-5-------x-5-|-(5)--------3-|-(3)b3.5==(3)---------3---|-3-2-----3-(3)-----|
|-------------|--------------|--------------5p3-5-----5-|-----5-3------------|
|-------------|--------------|--------------------------|--------------------|
|-------------|--------------|--------------------------|--------------------|

G5
    Q    E  E        E  Q  E    E    E       E       E  E    Q  E
    |    |  |        |  |  |    |    |       |       |  |    |  |
    /    /  /        /  /  /    /    /       /       /  /    /  /

|-------3-------|
    E  E E  E       +H          Q       Q       Q       H
|----------------------------|------------------------------------|
|----------15b15.5-(15)------|-15b18---15b18---15b18---15b18------|
|-----12---------------------|------------------------------------|
|-/14------------------------|------------------------------------|
|----------------------------|------------------------------------|
|----------------------------|------------------------------------|

C5
   Q       E    E  E Q       E       E    E     E         E         E  Q           E
   |       |    |  | |       |       |    |     |         |         |  |           |
   /       /    /  / /       /       /    /     /         /         /  /           /

|----3-----|    |-----3------|    |---3---|  |--3--|   |--3---|
   Q     q    q    q    Q  E    E    E  E    E  S  S  S   S   S  S  E  S  S  S  S  E
|---------------------------------|----------------------------------------------------|
|-15b18-15---14---13------13---15-|-13h15p==13S11h13p11-(11)h13p11s10-11p10----10h11---|
|----------------------15---------|-----------------------------------------12---------|
|---------------------------------|----------------------------------------------------|
|---------------------------------|----------------------------------------------------|
|---------------------------------|----------------------------------------------------|

F5                                     C5
   W                                      W
   |                                      |
   /                                      /

|--3--|  |---3----|         |--3--|    |---3----|  |---3----|  |--3--|     |--3--|
   E  E  E  E     E  E  Q      E  E  E    E     E  E  E  E     E  E  E  E     E  S  E.
|----------------10-15--------15-------|-------15----15-------15----15-------15--------|
|-10----10-13b15-------18b20-----18p15-|-18b20----18----18b20----18----18b20----18p15--|
|----12--------------------------------|-----------------------------------------------|
|--------------------------------------|-----------------------------------------------|
|--------------------------------------|-----------------------------------------------|
|--------------------------------------|-----------------------------------------------|

G5(type 2)
   Q           E       E  Q.        E       E    E E E   Q    E E
   |           |       |  |         |            |   |   |    | |
   /           /       /  /         /            /   /   /    / /

|---3----|  |3-|            |---3---|
   E     E  E  E  Q       Q    E  E    E    H           +Q    Q
|-------15----15---------15---15---------|-18b21-------(18)-------|
|----------18----18b20-----------18p==15-|-------------------------|
|-17b19----------------------------------|-------------------------|
|----------------------------------------|-------------------------|
|----------------------------------------|-------------------------|
|----------------------------------------|-------------------------|

G5
  Q     E   E   E   Q       E     E   E   E   E   E   Q       E
  |     |   |   |   |       |     |   |   |   |   |   |       |
  /     /   /   /   /       /     /   /   /   /   /   /       /

|-3-| |--3--| |--3--| |--3--|   |--3--| |--3--| |--3--| |--3--|
  E E E E E   E E E   E E E   E   E E   E E E   E E E   E E E   E
|-3-----3-------3-------3-------|-3-------3-------3-------3-------|
|---6p3---6p==3---6p==3---6p==3-|---6p==3---6p==3---6p==3---6p==3-|
|-------------------------------|---------------------------------|
|-------------------------------|---------------------------------|
|-------------------------------|---------------------------------|
|-------------------------------|---------------------------------|

C5
  Q     E   E   E   Q       E     E   E   E   E   E   Q       E
  |     |   |   |   |       |     |   |   |   |   |   |       |
  /     /   /   /   /       /     /   /   /   /   /   /       /

|-3-| |--3--| |--3--| |--3--|   |--3--| |--3--| |--3--| |--3--|
  E E E E E   E E E   E E E   E   E E   E E E   E E E   E E E   E
|-3-----3-------3-------3-------|-3-------3-------3-------3----------|
|---6p3---6p==3---6p==3---6p==3-|---6p==3---6p==3---6p==3---6p==3----|
|-------------------------------|------------------------------------|
|-------------------------------|------------------------------------|
|-------------------------------|------------------------------------|
|-------------------------------|------------------------------------|

F5                              C5
  W                               W
  |                               |
  /                               /

|-3-|
  S S E S S S S S E S S S S S S   S S S S E   E E   E E   E
|-----6-5h6p5-------------------|---------------------------|
|-6s8---------8p6-8-5h6h8-5h6h8-|-6p5---------3-----3-------|
|-------------------------------|-----7p5-5b7---5b7---5b7-5-|
|-------------------------------|---------------------------|
|-------------------------------|---------------------------|
|-------------------------------|---------------------------|

G5(type 2)
  Q     E   E   Q.  E   E   E   E   E    Q   E E
  |     |   |   |   |       |       |    |   | |
  /     /   /   /   /       /       /    /   / /

~~
  |-3-| |--3--|         |--3--| |--3--|
  E E E E E   E Q.  E   E E   E E E   E  E E Q
|---------------------|-----------------------------|
|---------------------|-----------------------------|
|-3h5p3-------3-------|-----------------------------|
|-------3h5-----5p==3-|-5p3-----------3-------------|
|---------------------|-------5-3h5-----3-1--------|
|---------------------|----------------------3------|

G5
  Q   E E E  Q  E       E     E   E  E E Q E
  |   | | |  |  |       |     |   |  | | | |
  /   / / /  /  /       /     /   /  / / / /

~~~                         PM--|
  Q     E E +Q    E E   E    +E  +E  E E E E E
|---------------------|------------------------|
|---------------------|------------------------|
|---------------------|------------------------|
|---------------------|------------------------|
|-----------------1---|-3b4==(3)r(3)-1-3-1-----|
|-1b2---1-3-(3)-----3-|--------------------3-x-|

C5
  Q E E E Q E       E E E E  E  Q E
  | | | | | |       | | | |  |  | |
  / / / / / /       / / / /  /  / /

PM        ~~~~~~
  E E E E E E E E   Q S S E +E  E E E
|-----------------|-------------------|
|-----------------|-3-----------------|
|-----------------|-3-------------3---|
|-----3---5-3-----|---5p3-5-(5)-5---5-|
|-3s5---5-----5-3-|-------------------|
|-----------------|-------------------|

F5                 C5
  W                  W
  |                  |
  /                  /

~~~~~~             ~~~~~~
  Q  E E +E  E E E   Q.   E +E  E E E
|------------------|------------------|
|-3----------------|-3----------------|
|-3------------3---|-3------------3---|
|----5-5-(5)-5---5-|------5-(5)-5---5-|
|------------------|------------------|
|------------------|------------------|

G5(type 2)
  Q       E E Q.      E     E E E    E      Q   E E
  |       | | |       |       |      |      |   | |
  /       / / /       /       /      /      /   / /

E   +E  E E E   E E E     E E E   +E     +H
|-----------3-----3-------|---3---------------------|
|---------3-------3-3-----|-3---5b6r(5)b6--(5)------|
|-5b7-(5)-----5b7-----5b7-|-----5b6r(5)b6==(5)------|
|-------------------------|-------------------------|
|-------------------------|-------------------------|
|-------------------------|-------------------------|

G5
  Q   E    E  E  Q   E   E   E E E E Q  E
  |   |    |  |  |   |   |   | | | | |  |
  /   /    /  /  /   /   /   / / / / /  /

E E Q      +Q    E E   H..            E
|---3----------------3-|---------------------|
|-3---5b6====(5)---3---|-5b6------------5pb6r|
|-----5b6====(5)-------|-5b6------------5pb6r|
|----------------------|---------------------|
|----------------------|---------------------|
|----------------------|---------------------|

C5
   Q      E  E  E  Q     E   E E   E E E Q   E
   |      |  |  |  |     |   | |   | | | |   |
   /      /  /  /  /     /   / /   / / / /   /

+Q     +Q    +E  E Q       E Q   S S S S E E     E
|------------------3-------|-3-------3-6p3---8b10r(8)p=|
|-(5)b6--(5)---(5)---6b8---|---6b8-6-------6-----------|
|-(5)b6--(5)---(5)---------|---------------------------|
|--------------------------|---------------------------|
|--------------------------|---------------------------|
|--------------------------|---------------------------|

F5                     C5
  W                      W
  |                      |
  /                      /

E E E E E E  E     e   e E  E    e e  E  E      E
|-6---8p6-----10b12-10-|-9-8-------8-9-10------------|
|---8-----8p6----------|-----10b12--------10b11r(10)p|
|----------------------|-----------------------------|
|----------------------|-----------------------------|
|----------------------|-----------------------------|
|----------------------|-----------------------------|

G5(type 2)
  Q E  E Q. E         E  E E E  Q     E E
  | |  | |  |            |   |  |     | |
  / /  / /  /            /   /  /     / /

E E  E E  Q   E E   Q  E E E  Q     E
|-------------------|----------------10----|
|-8---10----8--10---|-8-10---8-10b12-------|
|---9----9--------9-|------9---------------|
|-------------------|----------------------|
|-------------------|----------------------|
|-------------------|----------------------|

G5                                       C5
   Q   E E  E Q   E    E E E E  E Q    E   Q     E  E     E    Q     E
   |   | |  | |   |    | | | |  | |    |   |     |  |     |    |     |
   /   / /  / /   /    / / / /  / /    /   /     /  /     /    /     /

~        ~          ~
   E E Q    E E Q      E E Q    E E E  E   E  E  E  S  S  S S  E  E  E
|-------------------|--------------------|-----------------------------|
|-10---8---10---8---|-10---8---10---8-10-|-8h10-11-10h11p10p8----10----|
|----9--------9-----|----9--------9------|--------------------10----10-|
|-------------------|--------------------|-----------------------------|
|-------------------|--------------------|-----------------------------|
|-------------------|--------------------|-----------------------------|

E   E  E     E     E        Q       E
  |   |  |     |     |        |       |
  /   /  /     /     /        /       /

|--3--|  |--3--|
  E   E  S  S  S  S  E  E  E  E  E  E
|-----------------------------------------|
|-8-----10h11p10----10h11h13-10h11h13-----|
|---/12----------12-----------------------|
|-----------------------------------------|
|-----------------------------------------|
|-----------------------------------------|

F5                                     C5
   W                                      W
   |                                      |
   /                                      /

|--3--|  |--3--|  |--3--|              |--3--|            |--3--|  |--3--|
   E  E  E  E  E  E  E  E  E   E  S  S    E  E  E   E  S  S  E  E  E  Q     E
|-10h12----10h12h13-15p12h13-/17-13-15-|-15h17----/18-15h17-15----15-------15-|
|-------13-----------------------------|-------18--------------18----18b20----|
|--------------------------------------|--------------------------------------|
|--------------------------------------|--------------------------------------|
|--------------------------------------|--------------------------------------|
|--------------------------------------|--------------------------------------|

G5(type 2)
   Q           E     E     Q.                      E      E          E   E  E  Q   E E
   |           |     |     |                       |                 |      |  |   | |
   /           /     /     /                       /                 /      /  /   / /

~~~
   S  S  S  S  S  S  S  S  S   S  S  S  S      S   S  S   S  E.         +Q     Q   E E
|-------------------------------------------------------|-x-18b18.5====(18)---------------|
|-18p15-18p15----15-18p15-----15----15------------------|---17b17.5====(17)---17s=14------|
|-------------18----------18-----18----17b19r(17)p15----|---------------------------------|
|----------------------------------------------------17-|---------------------------------|
|-------------------------------------------------------|---------------------------------|
|-------------------------------------------------------|---------------------------------|

G5
   Q        E    E     E     Q           E       E     E     E     E     E     Q           E
   |        |    |     |     |           |       |     |     |     |     |     |           |
   /        /    /     /     /           /       /     /     /     /     /     /           /

|--3--|  |---3---|
   E  E  E  E  E    E  S  S  S  S  S  S  S  S    S  S  S  S  S  S  S  S  S  S  S  S  S  S  S  S
|---------------------12-13h15p13p12----13p12-|-------12----------------------------------------|
|----------12h13h==15----------------15-------|-15-13----15p13-12-15-13p12----14p13p12----15p14p|
|-12h14h15------------------------------------|----------------------------15----------14-------|
|---------------------------------------------|-------------------------------------------------|
|---------------------------------------------|-------------------------------------------------|
|---------------------------------------------|-------------------------------------------------|

C5
   Q           E     E     E     Q         E
   |           |     |     |     |         |
   /           /     /     /     /         /

S  S  S  S  S  S  S  S  S  S  S S  S  S S  S
|------------------------------------------------|
|-13p12-------12p10-------10---------------------|
|-------14p12-------12p10----12p10s9-12p10p9-----|
|--------------------------------------------12--|
|------------------------------------------------|
|------------------------------------------------|

E    E    E     E    E         Q                 E
   |    |    |     |    |         |                 |
   /    /    /     /    /         /                 /

S S  S  S S  S  S S  S  S     +S   S  S     +S   S  S
|--------------------------------------------------------|
|--------------------------------------------------------|
|-10p9-------9-------------------------------------------|
|------12-10---12p10-9-12-10b11r(10)----10b11r(10)----10-|
|------------------------------------13------------13----|
|--------------------------------------------------------|

F5                          C5
   W                           W
   |                           |
   /                           /

PM|        PM|     PM
                               |--3--|  |--3--|  |--3--|  |--3--|
   Q   S  S  E E  S  S  E E    E  E  E  E  E  E  E  E  E  E  E  E
|---------------------------|--------------------------------------|
|---------------------------|--------------------------------------|
|---------------------------|--------------------------------------|
|-10--------10---------10-0-|-------------------15h16h17-15h16h17--|
|---------------------------|-15h16h17-15h16h17--------------------|
|-----10-10------10-10------|--------------------------------------|

G5(type 2)
   Q             E       E        Q.                  E
   |             |       |        |                   |
   /             /       /        /                   /

|-------------9-------------|  |------------9------------|
   E  E  E  E  E    E  E    E  E  E  E  E  E  E  E  E    E  E
|-------------------------------------------------------------|
|--------------------------------15h16h17----------15h==16h17-|
|-15h16h17------------15h==16h17----------15h16h17------------|
|----------15h16h==17-----------------------------------------|
|-------------------------------------------------------------|
|-------------------------------------------------------------|

E    E     E  E      Q    E  E
        |        |      |    |  |
        /        /      /    /  /

|---3---|
   E  E    E  E  E     +Q    Q
|------------15--------------------|
|-16h17h==18----18b20-(18)---------|
|----------------------------------|
|----------------------------------|
|---------------------------15----|
|----------------------------------|

G5
  Q     E E   E Q     E     E E   E E   E Q     E
  |     | |   | |     |     | |   | |   | |     |
  /     / /   / /     /     / /   / /   / /     /

PM-------------------------------------------------
  E S S E S S E S S E S S   E S S E S S E S S E S S
|-------------------------|-------------------------|
|-------------------------|-------------------------|
|-------------------------|-------------------------|
|-------------------------|-------------------------|
|-------------------------|-------------------------|
|-3-1-2-3-1-2-3-1-2-3-1-2-|-3-1-2-3-1-2-3-1-2-3-1-2-|

C5
  Q     E   E   E   Q       E     E   E   E   E   E   Q       E
  |     |   |   |   |       |     |   |   |   |   |   |       |
  /     /   /   /   /       /     /   /   /   /   /   /       /

---------------------------------------------------------------|
  |-3-| |--3--| |--3--| |--3--|   |--3--| |--3--| |--3--| |--3--|
  E E E E E   E E E   E E E   E   E E   E E E   E E E   E E E   E
|-------------------------------|----------------------------------|
|-------------------------------|----------------------------------|
|-------------------------------|----------------------------------|
|-3-4-5-3-4---5-3-4---5-3-4---5-|-3-4---5-3-4---5-3-4---5-3-4---5--|
|-------------------------------|----------------------------------|
|-------------------------------|----------------------------------|

F5                     C5
  W                       W
  |                       |
  /                       /

PM--|   ~~~~~~~                         ~
  |-3-|
  E E E S E. +Q   Q      +H     E    S  S Q
|----------------------|---------------------|
|----------------------|---------------------|
|-------3---------3b4--|-(3)----5b6r(5)p3h5--|
|-3-4-5---5--(5)-------|---------------------|
|----------------------|---------------------|
|----------------------|---------------------|

G5(type 2)
   Q     E E Q.   E   E E E E Q  E     E
   |     | | |    |     |   | |  |     |
   /     / / /    /     /   / /  /     /

+W                  E E E E Q  E.      +S
|-------------------|-------------------------|
|-------------------|-------------------------|
|-(5)b7-------------|-5-3-5---3--3b3.5---(3)--|
|-------------------|-------5-----------------|
|-------------------|-------------------------|
|-------------------|-------------------------|

G5
  Q E E E Q E      E     E  E  E  E  Q     E
  | | | | | |      |     |  |  |  |  |     |
  / / / / / /      /     /  /  /  /  /     /

~
  W                Q     E  E  E  E  E     E
|---------------|----------12-----------------|
|---------------|-------15----15-12-----------|
|---------------|-14b16-------------14b16-14--|
|-5-------------|-----------------------------|
|---------------|-----------------------------|
|---------------|-----------------------------|

C5
   Q  E  E  E  Q E          E  E  E  E  E   Q   E
   |  |  |  |  | |          |  |  |  |  |   |   |
   /  /  /  /  / /          /  /  /  /  /   /   /

~~                       ~~~~~~~
   E  E  E  E  Q    E  E    S  S  E  E  E  +E   E  E  E
|------------------------|------------------------------|
|------------------------|------------------------------|
|-12----14----12---12-12-|-14p12----12-12-(12)-12-14-12-|
|----14----14------------|-------14---------------------|
|------------------------|------------------------------|
|------------------------|------------------------------|

F5                                  C5
   W                                   W
   |                                   |
   /                                   /

E     +E   E  E  E     +E   E  E    E  E  E  E   E      E  E  E
|-----------------------------------|------------------------------|
|------------12-15------------------|---------------------13-14-15-|
|-14b16-(14)-------14b16r(14)-12----|-14----12-14-(14)b15----------|
|--------------------------------14-|----14------------------------|
|-----------------------------------|------------------------------|
|-----------------------------------|------------------------------|

G5(type 2)
   Q        E  E     Q.           E    E  E     E  E  Q        E     E
   |        |  |     |            |       |        |  |        |     |
   /        /  /     /            /       /        /  /        /     /

E     E  E  E     E   E  E     E    E  E     E  E  E     E  S  S  S     S
|-----------------------------------|------------------------------------------|
|-------13-15-------13--15-------13-|-15-------13-15-------13-15p13-------13---|
|-14b15-------14b15--------14b15----|----14b15-------14b15----------15b16------|
|-----------------------------------|------------------------------------------|
|-----------------------------------|------------------------------------------|
|-----------------------------------|------------------------------------------|

G5
  Q              E     E        E     Q              E         E     E        E     E        E     Q              E
  |              |     |        |     |              |         |     |        |     |        |     |              |
  /              /     /        /     /              /         /     /        /     /        /     /              /

S  S  S     S  S  S  S     S  S  S  S     S  S  S  S     S   S  S  S     S  S  S  S     S  S  S  S     S  S  S  S     S
|------------------------------------------------------------|-----------------------------------------------------------|
|15p13-------13-15p13-------13-15p13-------13-15p13-------13-|15p13-------13-15p13-------13-15p13-------13-15p13-------13|
|------15b16----------15b16----------15b16----------15b16----|------15b16----------15b16----------15b16----------15b16---|
|------------------------------------------------------------|-----------------------------------------------------------|
|------------------------------------------------------------|-----------------------------------------------------------|
|------------------------------------------------------------|-----------------------------------------------------------|

C5
  Q              E     E        E     Q              E         E     E        E     E        E     Q              E
  |              |     |        |     |              |         |     |        |     |        |     |              |
  /              /     /        /     /              /         /     /        /     /        /     /              /

S  S  S     S  S  S  S     S  S  S  S     S  S  S  S     S   S  S  S     S  S  S  S     S  S  S  S     S  S  S  S     S
|------------------------------------------------------------|-----------------------------------------------------------|
|15p13-------13-15p13-------13-15p13-------13-15p13-------13-|15p13-------13-15p13-------13-15p13-------13-15p13-------13|
|------15b16----------15b16----------15b16----------15b16----|------15b16----------15b16----------15b16----------15b16---|
|------------------------------------------------------------|-----------------------------------------------------------|
|------------------------------------------------------------|-----------------------------------------------------------|
|------------------------------------------------------------|-----------------------------------------------------------|

SLOWER
  H.=H
  F5                                  C5
   H                                   H
   |                                   |
   /                                   /

|--3--|            |--3---|  |-----5-----|
   E     T  T  T  T  S  T  T  S  S  S  S  S      S   S  S  S  S  S  S  S
|----------------------------------------------------------------------------|
|-15b17-13h15p13s12-13-12h13p12-------12-------------------------------------|
|-------------------------------14p12----14b16r(14)p12----14p12--------------|
|------------------------------------------------------14-------12h14-12b14==|
|----------------------------------------------------------------------------|
|----------------------------------------------------------------------------|

Free Time
  G5
    W
    |
    /

Q    +Q    +Q.   E
|------------------------:
|------------------------:
|--------------------5b6-:
|-(12)r=(12)--(12)-------:
|------------------------:
|------------------------:

+W
   |
   /

|------6------| |------6------| |--------6--------| |-----5-----|
   S    S  S S S S S    S  S S S S S     S S     S S S S S S   +S  S
|--------------------------------------------------------------------:
|--------------------------------------------------------------------:
|--5b6r(5)p3-5p3---5b6r(5)p3---5---3b3.5---3b3.5---------------------:
|----------------5-----------5---5-------5-------5-3-----------------:
|----------------------------------------------------5-4-3-3b4r(3)-1-:
|--------------------------------------------------------------------:

+W
   |
   /

~~~~~~~~
   S S S  S  Q   +Q.   E
|-------------------------|
|-------------------------|
|----------------------3--|
|--------/5-(5)--(5)------|
|--3-1-2------------------|
|-------------------------|

G5
   W              W           Q   Q  H
                              |
                              /

W             +W           Q   Q  H
|--------------:------------:-------------*|
|--------------:------------:-------------*|
|-(3)b4--------:-(3)--------:-------------*|
|--------------:------------:-5----------*|
|--------------:------------:-5----------*|
|--------------:------------:-3----------*|
 
 
Guns N Roses - Paradise City Tab :: indexed at Ultimate Guitar.
Paradise City tabs @ 911Tabs

Quick tip, so you can enjoy Paradise City Tab even more:

If you spend just 10 seconds to register, you will be able to comment on all the chords and tabs and rate them. You will as well be able to comment on videos of your fellow guitarists and give them ratings from 1 to 5 ... And - of course - you can share your own videos with them and see what they think of you. :)
Click here to join us!

Show us your talent, perform Paradise City Tab!

Here you can post a video or audio performance. Tell me more ...
Where can we find your performance? Tell me more ...
Your comment:
Please, log in to post your performance.