Artists by letter: A B C D E F G H I J K L M N O P Q R S T U V W X Y Z 0-9

 
Enough Space Tab
Foo Fighters
Enough Space



H.              H.              H.              H.            
E||--3------------|--L------------|--L------------|--L------------|
B||--3------------|--L------------|--L------------|--L------------|
G||--0------------|--L------------|--L------------|--L------------|
D||--5------------|--L------------|--L------------|--L------------|
A||---------------|---------------|---------------|---------------|
E||---------------|---------------|---------------|---------------|

H.              H.              H.              H.              H.            
--L------------|--L------------|--L------------|--L------------|--L------------|
--L------------|--L------------|--L------------|--L------------|--L------------|
--L------------|--L------------|--L------------|--L------------|--L------------|
--L------------|--L------------|--L------------|--L------------|--L------------|
---------------|---------------|---------------|---------------|---------------|
---------------|---------------|---------------|---------------|---------------|

H.              H.              H.              H.              H.            
--L------------|--L------------|--L------------|--L------------|--L------------|
--L------------|--L------------|--L------------|--L------------|--L------------|
--L------------|--L------------|--L------------|--L------------|--L------------|
--L------------|--L------------|--L------------|--L------------|--L------------|
---------------|---------------|---------------|---------------|---------------|
---------------|---------------|---------------|---------------|---------------|

H.              H.              Q    E  E  E  E     E  E  Q    Q      
--L------------|--L------------|-------------------|-------------------|
--L------------|--L------------|--3----L--3--L--3--|--3--5--5----5S----|
--L------------|--L------------|--0----L--0--L--0--|--0--x--0----0S----|
--L------------|--L------------|--5----L--4--L--4--|--5--7--7----7S----|
---------------|---------------|-------------------|-------------------|
---------------|---------------|-------------------|-------------------|

Q    E  E  E  E     E  E  Q    Q        Q    E  E  E  E     E  E  Q    Q      
-------------------|-------------------|-------------------|-------------------|
--3----L--3--L--3--|--3--5--5----5S----|--3----L--3--L--3--|--3--5--5----5S----|
--0----L--0--L--0--|--0--x--0----0S----|--0----L--0--L--0--|--0--x--0----0S----|
--5----L--4--L--4--|--5--7--7----7S----|--5----L--4--L--4--|--5--7--7----7S----|
-------------------|-------------------|-------------------|-------------------|
-------------------|-------------------|-------------------|-------------------|

Q    E  E  E  E     E  E  Q    Q       Q    E  E   E  E   
-------------------|------------------|--------------------|
--3----L--3--L--3--|--3--5--5---------|--------------------|
--0----L--0--L--0--|--0--x--0---------|----------5S--6-----|
--5----L--4--L--4--|--5--7--7----x----|--5-------5S--6-----|
-------------------|------------------|--5-------3S--4-----|
-------------------|------------------|--3----0---------0--|

E   E  Q    E  E     Q    E  E   E  E     E   E  Q    E  E   
--------------------|--------------------|--------------------|
--------------------|--------------------|--------------------|
--------------------|----------5S--6-----|--------------------|
--6S--7--7----7-----|--5-------5S--6-----|--6S--7--7----7-----|
--6S--7--7----7-----|--5-------3S--4-----|--6S--7--7----7-----|
--4S--5--5----5--0--|--3----0---------0--|--4S--5--5----5--0--|

Q    E  E   E  E     E   E  Q    E  E     Q    E  E   E  E   
--------------------|--------------------|--------------------|
--------------------|--------------------|--------------------|
----------5S--6-----|--------------------|----------5S--6-----|
--5-------5S--6-----|--6S--7--7----7-----|--5-------5S--6-----|
--5-------3S--4-----|--6S--7--7----7-----|--5-------3S--4-----|
--3----0---------0--|--4S--5--5----5--0--|--3----0---------0--|

E   E  Q    E  E     Q    E  E   E  E     E   E  Q    E  E   
--------------------|--------------------|--------------------|
--------------------|--------------------|--------------------|
--------------------|----------5S--6-----|--------------------|
--6S--7--7----7-----|--5-------5S--6-----|--6S--7--7----7-----|
--6S--7--7----7-----|--5-------3S--4-----|--6S--7--7----7-----|
--4S--5--5----5--0--|--3----0---------0--|--4S--5--5----5--0--|

Q    E  E   E  E     E   E  Q    E  E     Q    E  E   E  E   
--------------------|--------------------|--------------------|
--------------------|--------------------|--------------------|
----------5S--6-----|--------------------|----------5S--6-----|
--5-------5S--6-----|--6S--7--7----7-----|--5-------5S--6-----|
--5-------3S--4-----|--6S--7--7----7-----|--5-------3S--4-----|
--3----0---------0--|--4S--5--5----5--0--|--3----0---------0--|

E   E  Q    E  E     Q    E  E   E  E     E   E  Q    Q        H.            
--------------------|--------------------|--------------------|---------------|
--------------------|--------------------|--------------------|---------------|
--------------------|----------5S--6-----|--------------------|---------------|
--6S--7--7----7-----|--5-------5S--6-----|--6S--7--7----7S----|---------------|
--6S--7--7----7-----|--5-------3S--4-----|--6S--7--7----7S----|---------------|
--4S--5--5----5--0--|--3----0---------0--|--4S--5--5----5S----|---------------|

H.              H.              H.              H.              H.            
---------------|---------------|---------------|---------------|---------------|
---------------|---------------|---------------|---------------|---------------|
---------------|---------------|---------------|---------------|---------------|
---------------|---------------|---------------|---------------|---------------|
---------------|---------------|---------------|---------------|---------------|
---------------|---------------|---------------|---------------|---------------|

H.              H.              Q    E  E  E  E     E  E  Q    Q      
---------------|---------------|-------------------|-------------------|
---------------|---------------|--3----L--3--L--3--|--3--5--5----5S----|
---------------|---------------|--0----L--0--L--0--|--0--x--0----0S----|
---------------|---------------|--5----L--4--L--4--|--5--7--7----7S----|
---------------|---------------|-------------------|-------------------|
---------------|---------------|-------------------|-------------------|

Q    E  E  E  E     E  E  Q    Q        Q    E  E  E  E     E  E  Q    Q      
-------------------|-------------------|-------------------|-------------------|
--3----L--3--L--3--|--3--5--5----5S----|--3----L--3--L--3--|--3--5--5----5S----|
--0----L--0--L--0--|--0--x--0----0S----|--0----L--0--L--0--|--0--x--0----0S----|
--5----L--4--L--4--|--5--7--7----7S----|--5----L--4--L--4--|--5--7--7----7S----|
-------------------|-------------------|-------------------|-------------------|
-------------------|-------------------|-------------------|-------------------|

Q    E  E  E  E     E  E  Q    Q        Q    E  E   E  E   
-------------------|-------------------|--------------------|
--3----L--3--L--3--|--3--5--5----5S----|--------------------|
--0----L--0--L--0--|--0--x--0----0S----|----------5S--6-----|
--5----L--4--L--4--|--5--7--7----7S----|--5-------5S--6-----|
-------------------|-------------------|--5-------3S--4-----|
-------------------|-------------------|--3----0---------0--|

E   E  Q    E  E     Q    E  E   E  E     E   E  Q    E  E   
--------------------|--------------------|--------------------|
--------------------|--------------------|--------------------|
--------------------|----------5S--6-----|--------------------|
--6S--7--7----7-----|--5-------5S--6-----|--6S--7--7----7-----|
--6S--7--7----7-----|--5-------3S--4-----|--6S--7--7----7-----|
--4S--5--5----5--0--|--3----0---------0--|--4S--5--5----5--0--|

Q    E  E   E  E     E   E  Q    E  E     Q    E  E   E  E   
--------------------|--------------------|--------------------|
--------------------|--------------------|--------------------|
----------5S--6-----|--------------------|----------5S--6-----|
--5-------5S--6-----|--6S--7--7----7-----|--5-------5S--6-----|
--5-------3S--4-----|--6S--7--7----7-----|--5-------3S--4-----|
--3----0---------0--|--4S--5--5----5--0--|--3----0---------0--|

E   E  Q    Q        H.              H.              H.            
--------------------|---------------|---------------|---------------|
--------------------|---------------|---------------|---------------|
--------------------|---------------|---------------|---------------|
--6S--7--7----7S----|---------------|---------------|---------------|
--6S--7--7----7S----|---------------|---------------|---------------|
--4S--5--5----5S----|---------------|---------------|---------------|

H.              H.              H.              H.              H.            
---------------|---------------|---------------|---------------|---------------|
---------------|---------------|---------------|---------------|---------------|
---------------|---------------|---------------|---------------|---------------|
---------------|---------------|---------------|---------------|---------------|
---------------|---------------|---------------|---------------|---------------|
---------------|---------------|---------------|---------------|---------------|

Q    E  E  E  E     E  E  Q    Q        Q    E  E  E  E     E  E  Q    Q      
-------------------|-------------------|-------------------|-------------------|
--3----L--3--L--3--|--3--5--5----5S----|--3----L--3--L--3--|--3--5--5----5S----|
--0----L--0--L--0--|--0--x--0----0S----|--0----L--0--L--0--|--0--x--0----0S----|
--5----L--4--L--4--|--5--7--7----7S----|--5----L--4--L--4--|--5--7--7----7S----|
-------------------|-------------------|-------------------|-------------------|
-------------------|-------------------|-------------------|-------------------|

Q    E  E  E  E     E  E  Q    Q        Q    E  E  E  E     E  E  Q    Q      
-------------------|-------------------|-------------------|-------------------|
--3----L--3--L--3--|--3--5--5----5S----|--3----L--3--L--3--|--3--5--5----5S----|
--0----L--0--L--0--|--0--x--0----0S----|--0----L--0--L--0--|--0--x--0----0S----|
--5----L--4--L--4--|--5--7--7----7S----|--5----L--4--L--4--|--5--7--7----7S----|
-------------------|-------------------|-------------------|-------------------|
-------------------|-------------------|-------------------|-------------------|

Q    E  E   E  E     E   E  Q    E  E     Q    E  E   E  E   
--------------------|--------------------|--------------------|
--------------------|--------------------|--------------------|
----------5S--6-----|--------------------|----------5S--6-----|
--5-------5S--6-----|--6S--7--7----7-----|--5-------5S--6-----|
--5-------3S--4-----|--6S--7--7----7-----|--5-------3S--4-----|
--3----0---------0--|--4S--5--5----5--0--|--3----0---------0--|

E   E  Q    E  E     Q    E  E   E  E     E   E  Q    E  E   
--------------------|--------------------|--------------------|
--------------------|--------------------|--------------------|
--------------------|----------5S--6-----|--------------------|
--6S--7--7----7-----|--5-------5S--6-----|--6S--7--7----7-----|
--6S--7--7----7-----|--5-------3S--4-----|--6S--7--7----7-----|
--4S--5--5----5--0--|--3----0---------0--|--4S--5--5----5--0--|

Q    E  E   E  E     E   E  Q    E  E     Q    E  E   E  E   
--------------------|--------------------|--------------------|
--------------------|--------------------|--------------------|
----------5S--6-----|--------------------|----------5S--6-----|
--5-------5S--6-----|--6S--7--7----7-----|--5-------5S--6-----|
--5-------3S--4-----|--6S--7--7----7-----|--5-------3S--4-----|
--3----0---------0--|--4S--5--5----5--0--|--3----0---------0--|

E   E  Q    E  E     Q    E  E   E  E     E   E  Q    E  E   
--------------------|--------------------|--------------------|
--------------------|--------------------|--------------------|
--------------------|----------5S--6-----|--------------------|
--6S--7--7----7-----|--5-------5S--6-----|--6S--7--7----7-----|
--6S--7--7----7-----|--5-------3S--4-----|--6S--7--7----7-----|
--4S--5--5----5--0--|--3----0---------0--|--4S--5--5----5--0--|

Q    E  E   E  E     E   E  Q    E  E     Q    E  E   E  E   
--------------------|--------------------|--------------------|
--------------------|--------------------|--------------------|
----------5S--6-----|--------------------|----------5S--6-----|
--5-------5S--6-----|--6S--7--7----7-----|--5-------5S--6-----|
--5-------3S--4-----|--6S--7--7----7-----|--5-------3S--4-----|
--3----0---------0--|--4S--5--5----5--0--|--3----0---------0--|

E   E  Q      Q        E  E  E  E  E    E     E     E   
----------------------|----------------------------------|
----------------------|----------------------------------|
----------------------|----------------------------------|
--6S--7--7------------|--4--4-----4----------------------|
--6S--7--7------------|--4--4-----4----------------------|
--4S--5--5S----17S----|--2--2--0--2--2S--18~--(18)S~--0--|

E  E  E  E  E    Q     E     E  E  E  E  E    Q     E   
----------------------------|----------------------------|
----------------------------|----------------------------|
----------------------------|----------------------------|
--4--4-----4----------------|--4--4-----4----------------|
--4--4-----4----------------|--4--4-----4----------------|
--2--2--0--2--2S--10~----0--|--2--2--0--2--2S--19~----0--|

E  E  E  E  E    E  E  E     E  E  E  E  E  E    Q          
----------------------------|--------------------------------|
----------------------------|--------------------------------|
----------------------------|--2--2--2--2--2--4b--(4)pbr~----|
--4--4-----4----------------|--------------------------------|
--4--4-----4----------------|--------------------------------|
--2--2--0--2--2S--19--0--0--|--------------------------------|

E  E  E  E  E  E    Q            E  E  E  E  E  E  E  E       
--------------------------------|------------------------------|
--------------------------------|------------------------------|
--2--2--2--2--2--4b--(4)pbr~----|--2--2--2--2--2--4--2--4pbr~--|
--------------------------------|------------------------------|
--------------------------------|------------------------------|
--------------------------------|------------------------------|

Q    Q      Q      E  E     Q    E  E   E  E     E   E  Q    E  E   
---------------------------|--------------------|--------------------|
---------------------0-----|--------------------|--------------------|
--L----4b~----4b~----0-----|----------5S--6-----|--------------------|
---------------------0-----|--5-------5S--6-----|--6S--7--7----7-----|
---------------------------|--5-------3S--4-----|--6S--7--7----7-----|
------------------------0--|--3----0---------0--|--4S--5--5----5--0--|

Q    E  E   E  E     E   E  Q    E  E     Q    E  E   E  E   
--------------------|--------------------|--------------------|
--------------------|--------------------|--------------------|
----------5S--6-----|--------------------|----------5S--6-----|
--5-------5S--6-----|--6S--7--7----7-----|--5-------5S--6-----|
--5-------3S--4-----|--6S--7--7----7-----|--5-------3S--4-----|
--3----0---------0--|--4S--5--5----5--0--|--3----0---------0--|

E   E  Q    E  E     Q    E  E   E  E     E   E  Q    E  E   
--------------------|--------------------|--------------------|
--------------------|--------------------|--------------------|
--------------------|----------5S--6-----|--------------------|
--6S--7--7----7-----|--5-------5S--6-----|--6S--7--7----7-----|
--6S--7--7----7-----|--5-------3S--4-----|--6S--7--7----7-----|
--4S--5--5----5--0--|--3----0---------0--|--4S--5--5----5--0--|

Q    E  E   E  E     E   E  Q    E  E     Q    E  E   E  E   
--------------------|--------------------|--------------------|
--------------------|--------------------|--------------------|
----------5S--6-----|--------------------|----------5S--6-----|
--5-------5S--6-----|--6S--7--7----7-----|--5-------5S--6-----|
--5-------3S--4-----|--6S--7--7----7-----|--5-------3S--4-----|
--3----0---------0--|--4S--5--5----5--0--|--3----0---------0--|

E   E  Q    E  E     Q    E  E   E  E     E   E  Q    E  E   
--------------------|--------------------|--------------------|
--------------------|--------------------|--------------------|
--------------------|----------5S--6-----|--------------------|
--6S--7--7----7-----|--5-------5S--6-----|--6S--7--7----7-----|
--6S--7--7----7-----|--5-------3S--4-----|--6S--7--7----7-----|
--4S--5--5----5--0--|--3----0---------0--|--4S--5--5----5--0--|

Q    E  E   E  E     E   E  Q    E   E     H.             
--------------------|---------------------|---------------||
--------------------|---------------------|---------------||
----------5S--6-----|---------------------|---------------||
--5-------5S--6-----|--6S--7--7----7S--x--|---------------||
--5-------3S--4-----|--6S--7--7----7S--x--|---------------||
--3----0---------0--|--4S--5--5----5S--x--|---------------||



Duration Legend
---------------
W - whole
H - half
Q - quarter
E - 8th
S - 16th
T - 32nd
X - 64th
. - note dotted
|-n-|  - n-tuplets

Tablature Legend
----------------
L - tied note
x - dead note
g - grace note
(n) - ghost note
> - accentuded note
NH - natural harmonic
AH - artificial harmonic
TH - tapped harmonic
SH - semi harmonic
PH - pitch harmonic
h - hammer on
p - pull off
b - bend
br - bendRelease
pb - preBend
pbr - preBendRelease
brb - bendReleaseBend
n/ - tremolo bar dip
n - tremolo bar dive
-/n - tremolo bar Release up
/n - tremolo bar inverted dip
/n - tremolo bar return
-n - tremolo bar Release down
S - shift slide
s - legato slide
/ -  slide into from below or out of upwards
 -  slide into from above or out of downwards
~ - vibrato
W - wide vibrato
tr - trill
TP - tremolo picking
T - tapping
S - slap
P - pop
< - fade in
^ - brush up
v - brush down
 
 
Foo Fighters - Enough Space Tab :: indexed at Ultimate Guitar.
Enough Space tabs @ 911Tabs

About the artist behind Enough Space Tab:

Foo Fighters is an American alternative rock band formed by singer/guitarist Dave Grohl in 1995.[1] Grohl formed the group as a one-man project after the dissolution of his previous band Nirvana in 1994. Prior to the release of Foo Fighters in 1995, Grohl drafted Nate Mendel (bass), William Goldsmith (drums), and Pat Smear (guitar) to complete the group. Goldsmith and Smear left after the recording of the group's second album The Colour and the Shape (1997). They were replaced by Taylor Hawkins and Franz Stahl, respectively, although Stahl left prior to the recording of the group's third album, There Is Nothing Left to Lose (1999).

Chris Shiflett joined as the band's second guitarist after the completion of There is Nothing Left to Lose. The band released its fourth album One by One in 2002. The group followed that release with the two-disc In Your Honor (2005), which was split between acoustic songs and harder-rocking material. Foo Fighters released its sixth album Echoes, Silence, Patience & Grace in 2007. Over the course of the band's career, three of its albums have won Grammy Awards for Best Rock Album, and all six have been nominated for Grammys.

Indexed at Wikipedia.

Show us your talent, perform Enough Space Tab!

Here you can post a video or audio performance. Tell me more ...
Where can we find your performance? Tell me more ...
Your comment:
Please, log in to post your performance.