Artists by letter: A B C D E F G H I J K L M N O P Q R S T U V W X Y Z 0-9

 
Layla Tab
this is my first tab, its the acoustic version of layla its roughly what i play.
sorry i havent put the timing or alot of the bends in but its easy and
im sure u can work it out just listen to the song
any questions about it email me at [email protected]

order:
intro
verse
chorus
verse
chorus
verse
chorus
chorus
solo
end chorus

intro                                                              
E||----------------------|----------------------|-----------------1----|
B||-----------------3----|-------3----3----3----|--5---------5----3----|
G||------------2---------|-------3----3----3----|--5---------5----2----|
D||------------0---------|-------3----3----3----|--5---------5----0----|
A||--0----3--------------|--3----1----1----1----|--3----0----3---------|
E||----------------------|----------------------|----------------------|

----------------------|----------------------|----------------------|
-----------------3----|-------3----3----3----|--5---------5---------|
------------2---------|-------3----3----3----|--5---------5---------|
------------0---------|-------3----3----3----|--5---------5----0----|
--0----3--------------|--3----1----1----1----|--3----0----3---------|
----------------------|----------------------|----------------------|

----------------------|----------------------|----------------------|
-----------------3----|-------3----3----3----|--5---------5---------|
------------2---------|-------3----3----3----|--5---------5----7----|
------------0---------|-------3----3----3----|--5---------5----7----|
--0----3--------------|--3----1----1----1----|--3----0----3----5----|
----------------------|----------------------|----------------------|

----------------------|----------------------|----------------------|
------------5h---6h---|--5---------5h---6----|-------5h---6/---8----|
-------7--------------|-------7--------------|--7-------------------|
--7-------------------|----------------------|----------------------|
----------------------|----------------------|----------------------|
----------------------|----------------------|----------------------|

-----------------------|--------------------------|--10----12----10h---12h---|
--6----8/---10----8----|--10/---13----10----13----|--------------------------|
-----------------------|--------------------------|--------------------------|
-----------------------|--------------------------|--------------------------|
-----------------------|--------------------------|--------------------------|
-----------------------|--------------------------|--------------------------|

--10----------10----------|--------------------------|-------------------------|
--------13----------13----|--10----------10----------|-------------------------|
--------------------------|--------12----------12----|--10h---12h---10/---9----|
--------------------------|--------------------------|-------------------------|
--------------------------|--------------------------|-------------------------|
--------------------------|--------------------------|-------------------------|

-----------------------|----------------------|----------------------|
-----------------------|-------5h---6h---5----|----------------------|
--10----9----7---------|--7-------------------|--7----5----7---------|
------------------7----|----------------------|-----------------7----|
-----------------------|----------------------|----------------------|
-----------------------|----------------------|----------------------|

----------------------|----------------------|----------------------|
----------------------|----------------------|----------------------|
----------------------|----------------------|----------------------|
--5----3---------3h---|--5h---3--------------|----------------------|
------------5---------|------------5----3----|--5---------3/---4----|
----------------------|----------------------|-------5--------------|

verse                                                                    
--4---------4---------|--4---------4---------|--4---------4---------|
--5---------5---------|--5---------5---------|--5---------5---------|
--4---------4---------|--4---------4---------|--4---------4---------|
--6---------6----6----|--6----6----6----6----|--6----6----6---------|
-------4--------------|----------------------|----------------------|
----------------------|----------------------|-----------------4----|

----------------------|----------------------|------------0---------|
----------------------|----------------------|------------0---------|
--5---------5---------|--5---------5---------|--5-------------------|
--4---------4---------|--4---------4---------|--4---------6---------|
--6---------6---------|--6---------6---------|--6---------4----4----|
--4----4----4----4----|--4----4----4----4----|--4----4--------------|

--0-------------------|----------------------|-------0----0---------|
--0--------------5----|-------7---------0----|-------3----3---------|
-----------------5----|-------7---------1----|-------1----1---------|
--6--------------5----|-------7---------2----|-------2----2---------|
--4----4----0----3----|--3----5----0----2----|-------2----2---------|
----------------------|----------------------|--0--------------0----|

----------------------|----------------------|----------------------|
--3---------3---------|----------------------|--4---------4---------|
--1---------1---------|--2---------2---------|--4---------4---------|
--2---------2---------|--4---------4---------|--4---------4---------|
--2---------2---------|--4---------4---------|--2---------2---------|
-------0---------0----|--2----2----2----2----|-------2---------2----|

----------------------|----------------------|----------------------|
----------------------|-------2---------2----|----------------------|
-------1---------1----|-------2---------2----|-------2---------2----|
-------2---------2----|-------2---------2----|-------4---------4----|
-------2---------2----|----------------------|-------4---------4----|
--0---------0---------|--0---------0---------|--0----2----2----2----|

chorus           
----------------------|----------------------|------------1----1----|
-------4---------4----|----------------------|-------2----3----3----|
-------4---------4----|-------1---------1----|-------2----2----2----|
-------4---------4----|-------2---------2----|-------2----0----0----|
-------2---------2----|-------2---------2----|-------0--------------|
--2---------2---------|--0---------0---------|--0-------------------|

----------------------|-----------------1----|-----------------1----|
-------3----3----3----|--5---------5----3----|-----------------3----|
-------3----3----3----|--5---------5----2----|-----------------2----|
-------3----3----3----|--5---------5----0----|------------0----0----|
--3----1----1----1----|--3----0----3---------|--0----3--------------|
----------------------|----------------------|----------------------|

----------------------|----------------------|-----------------1----|
-------3----3----3----|--5---------5---------|-----------------3----|
-------3----3----3----|--5---------5---------|-----------------2----|
-------3----3----3----|--5---------5----0----|------------0----0----|
--3----1----1----1----|--3----0----3---------|--0----3--------------|
----------------------|----------------------|----------------------|

----------------------|-----------------1----|-----------------1----|
-------3----3----3----|--5---------5----3----|-----------------3----|
-------3----3----3----|--5---------5----2----|-----------------2----|
-------3----3----3----|--5---------5----0----|------------0----0----|
--3----1----1----1----|--3----0----3---------|--0----3--------------|
----------------------|----------------------|----------------------|

solo            
----------------------|-------------------1--|------------5----5----|
-------3----3----3----|--5---------5------3--|------------6----6----|
-------3----3----3----|--5---------5------2--|----------------------|
-------3----3----3----|--5---------5------0--|----------------------|
--3----1----1----1----|--3----0----3---------|----------------------|
----------------------|----------------------|----------------------|

-------5----5----5----|-------5--------------|----------------------|
-------6----6----6----|-------6--------------|----------------------|
--7-------------------|--7---------7----5----|----------------------|
----------------------|----------------------|--7----6----5/---3----|
----------------------|----------------------|----------------------|
----------------------|----------------------|----------------------|

----------------------|--------------------------|--------------------------|
----------------------|--12/---13----13----13----|--12/---13----13----13----|
----------------------|--13/---14----14----14----|--13/---14----14----14----|
--5----3---------3----|--------------------------|--------------------------|
------------5---------|--------------------------|--------------------------|
----------------------|--------------------------|--------------------------|

--------------------------|--------------------------|
--12/---13----13----13----|--12/---13----13----13----|
--13/---14----14----14----|--13/---14----14----14----|
--------------------------|--------------------------|
--------------------------|--------------------------|
--------------------------|--------------------------|

--------------------------|--------------------------|
--12/---13----13----13----|--12/---13----13----13----|
--13/---14----14----14----|--13/---14----14----14----|
--------------------------|--------------------------|
--------------------------|--------------------------|
--------------------------|--------------------------|

--------------------------|--------------------------|
--------------13----15----|--------------11----------|
--12----14----------------|--14----12----12----10----|
--------------------------|--------------------------|
--------------------------|--------------------------|
--------------------------|--------------------------|

--------------------------|--------10----12----10h---|
--------------------10----|--13----------------------|
--------10----12----------|--------------------------|
--12----------------------|--------------------------|
--------------------------|--------------------------|
--------------------------|--------------------------|

--12h---10----------10----|--------------------------|
--------------13----------|--13----10----10----10----|
--------------------------|--------------------------|
--------------------------|--------------------------|
--------------------------|--------------------------|
--------------------------|--------------------------|

--------------------------|-----------------------|----------------------|
--10----11----10----------|-----------------------|----------------------|
--------------------12----|--10----9----7h---9h---|--7----5---------7----|
--------------------------|-----------------------|------------7---------|
--------------------------|-----------------------|----------------------|
--------------------------|-----------------------|----------------------|

----------------------|----------------------|----------------------|
--5----6----5h---6h---|--5-------------------|----------------------|
----------------------|-------7----5---------|----------------------|
----------------------|-----------------7----|--6----5----3----5----|
----------------------|----------------------|----------------------|
----------------------|----------------------|----------------------|

------------------13----|--10----------10----12----|--10h---12h---10----------|
------------------------|--------13----------------|--------------------13----|
------------------------|--------------------------|--------------------------|
--3---------------------|--------------------------|--------------------------|
-------5h---12----------|--------------------------|--------------------------|
------------------------|--------------------------|--------------------------|

------------------------|--------------------10----|--13----10----------15----|
--10----9----9----------|--------------10----------|--------------13----------|
------------------12----|--10----------------------|--------------------------|
------------------------|--------12----------------|--------------------------|
------------------------|--------------------------|--------------------------|
------------------------|--------------------------|--------------------------|

--13----15----13----15----|--13----10----------10----|
--------------------------|--------------10----------|
--------------------------|--------------------------|
--------------------------|--------------------------|
--------------------------|--------------------------|
--------------------------|--------------------------|

--12----13----15----12----|--13----15----17----12----|
--------------------------|--------------------------|
--------------------------|--------------------------|
--------------------------|--------------------------|
--------------------------|--------------------------|
--------------------------|--------------------------|

--13----------------------|--------------------------|
--------15----13----------|--------------13----------|
--------------------14----|--12----10----------12----|
--------------------------|--------------------------|
--------------------------|--------------------------|
--------------------------|--------------------------|

--------------------------|--10---------------------|--------------------------|
--10----------------------|--10---------10----------|--10----10----------------|
--------12----10----------|--10----9----9-----------|--9-----9/----10----------|
--------------------12----|-------------------12----|--------------------12----|
--------------------------|-------------------------|--------------------------|
--------------------------|-------------------------|--------------------------|

end chorus                                  
----------------------|------------1----1----|----------------------|
----------------------|------------3----3----|-------3----3----3----|
--5-------------------|------------2----2----|-------3----3----3----|
-------7----6----5----|--3---------0----0----|-------3----3----3----|
----------------------|-------3--------------|--3----1----1----1----|
----------------------|----------------------|----------------------|

-----------------1----|-----------------1----|----------------------|
--5---------5----3----|-----------------3----|-------3----3----3----|
--5---------5----2----|-----------------2----|-------3----3----3----|
--5---------5----0----|------------0----0----|-------3----3----3----|
--3----0----3---------|--0----3--------------|--3----1----1----1----|
----------------------|----------------------|----------------------|

----------------------|-----------------1----|----------------------|
--5---------5---------|-----------------3----|-------3----3----3----|
--5---------5---------|-----------------2----|-------3----3----3----|
--5---------5----0----|------------0----0----|-------3----3----3----|
--3----0----3---------|--0----3--------------|--3----1----1----1----|
----------------------|----------------------|----------------------|

--0-------------------|----------------------|----------------------|
--1--------------5----|--6----5h---6h---5h---|-------5----6/---8----|
--0----5----7---------|----------------------|--7-------------------|
----------------------|----------------------|----------------------|
--3-------------------|----------------------|----------------------|
----------------------|----------------------|----------------------|

----------------------|----------------------|----------------------||
--5h---6h---5---------|----------------------|----------------------||
-----------------7----|--5-------------------|----------------------||
----------------------|-------7----6----5----|--3h---5h---3----5----||
----------------------|----------------------|----------------------||
----------------------|----------------------|----------------------||
 
 
Eric Clapton - Layla Tab :: indexed at Ultimate Guitar.
Layla tabs @ 911Tabs

About the artist behind Layla Tab:

Eric Patrick Clapton, CBE (born 30 March 1945), is a English blues-rock guitarist, singer, songwriter and composer. He is one of the most successful musicians of the 20th and 21st centuries,[1] garnering an unprecedented three inductions into the Rock and Roll Hall of Fame (The Yardbirds, Cream, and solo). Often viewed by critics and fans alike as one of the greatest guitarists of all time[2], Clapton was ranked fourth in Rolling Stone Magazine's list of the "100 Greatest Guitarists of All Time"[3] and #53 on their list of the Immortals: 100 Greatest Artists of All Time.[4]

Although Clapton's musical style has varied throughout his career, it has always remained rooted in the blues. Clapton is credited as an innovator in several phases of his career, which have included blues-rock (with John Mayall & the Bluesbreakers and The Yardbirds) and psychedelic rock (with Cream). Clapton has also achieved great chart success in genres ranging from Delta blues (Me and Mr. Johnson) to pop ("Change the World") and reggae (Bob Marley's "I Shot the Sheriff"). Clapton also achieved fame with Derek and the Dominos through the hit song "Layla".

Indexed at Wikipedia.

Show us your talent, perform Layla Tab!

Here you can post a video or audio performance. Tell me more ...
Where can we find your performance? Tell me more ...
Your comment:
Please, log in to post your performance.