Artists by letter: A B C D E F G H I J K L M N O P Q R S T U V W X Y Z 0-9

 
Caught In A Web Tab
Caught In A Web

Author - Piotr Traczyk



DREAM THEATER
    Caught in a Web
      from Awake

Here's the chromatic interlude part (played mostly unisono by bass,
guitar and keyboard). Petrucci plays this on a 7-string, the tab here is
for a 6-string guitar - it's transposed up an octave ( except bars 2,4 and
15 to end ).
  This whole part makes a great warm-up excersise ( when you play it
slower ). It's also perfect for practicing cross-picking and
string-skipping - check out the sextuplets at the end...

E|---------------------------------|---------------------------------|----
B|---------------------------------|---------------------------------|----
G|---------------------------------|---------------------------------|----
D|---------5-4---------7-6-5-4-----|---------------------------------|----
A|-4-5-6-7-----7-6-5-4---------7-6-|-4/5-----54---------------------|----
E|---------------------------------|-4/5-5-5-54-4-4---4-4---4-4-x-4-|----

E|---------------------------------|---------------------------------|----
B|---------------------------------|---------------------------------|----
G|---------------------------------|---------------------------------|----
D|-5-5-3---------6-5-4-----5-4-3-2-|---------------------------------|----
A|-------7-6-5-6-------5-4---------|-4/5-----54---------------------|----
E|---------------------------------|-4/5-5-5-54-4-4---4-4---4-4-x-4-|----

E|---------------------------------|---------------------------------|----
B|---------------------------------|---------------------------------|----
G|---------------------------------|---------------------------------|----
D|---------5-4---------7-6-5-4-----|-5-5-3---------6-5-4-----5-4-3---|----
A|-4-5-6-7-----7-6-5-4---------7-6-|-------7-6-5-6-------5-4-------2-|----
E|---------------------------------|---------------------------------|----

E|---------------------------------|----------------------------------|---
B|---------------------------------|-------------------5--------------|---
G|-----------------------------5---|-6-5-------8-7-5---------8-7------|---
D|-----------5-4-7-6-----8-7-------|-----8-7-6-------------------10-9-|---
A|-3-4-5-7-6---------5-4-----6---7-|-----------------7----------------|---
E|---------------------------------|----------------------------------|---

E|-------------------|------------------------------------|---------------
B|-------------7-----|-------------------8-7---------10-9-|---------------
G|2:---9-8-6---------|4:---------6-7-8-9-----9-8-7-6------|---------------
D|4:-8---------------|4:-6-7-8-9--------------------------|---------------
A|-----------9-------|------------------------------------|---------------
E|-------------------|------------------------------------|---------------

H P
E|------------------------------------|----------------------------------|
B|-8-7-----8^9^8------------9-8-7-----|-8-7-6-------------8-7-10-9----11-|
G|-----9-8-------10-9-8-7-8-------7-6-|-------4-5-6-7-9-8---------7-6----|
D|------------------------------------|----------------------------------|
A|------------------------------------|----------------------------------|
E|------------------------------------|----------------------------------|

~~~                               ~~~
E|------8----9-8--------11-10-8---12---|--11-10---------13-12-10----14---|
B|-10------------11-10-9---------------|--------13-12-11-----------------|
G|----9---10--------------------9------|3:-----------------------11------|
D|-------------------------------------|4:-------------------------------|
A|-------------------------------------|---------------------------------|
E|-------------------------------------|---------------------------------|

E|-------------------------------------------------------|----------------
B|----------------11-9----------------------11-9---------|----------------
G|5:-12-11-8----9------11-9----12-11-8----9------11-9----|----------------
D|4:---------11-------------10---------11-------------10-|----------------
A|-------------------------------------------------------|----------------
E|-------------------------------------------------------|----------------

E|----------------------------------------------|------------------------|
B|--12-11-9------14-12-11-------12-11-9------14-|-12-11-------12-11------|
G|4:--------11-9----------13-11---------11-9----|2:-----13-11-------13-11|
D|4:--------------------------------------------|4:----------------------|
A|----------------------------------------------|------------------------|
E|----------------------------------------------|------------------------|

E|--------------------------------------------------------------|---------
B|--15-14-12-------17-15-14-------15-14-12-------17-15-14-------|---------
G|5:---------14-12----------16-14----------14-12----------16-14-|---------
D|4:------------------------------------------------------------|---------
A|--------------------------------------------------------------|---------
E|--------------------------------------------------------------|---------

E|-------------------------------------------------------------------|---|
B|--17-18-17-15-----17-18-17-15-----20-15-20-15-----20-15-20-15------|---|
G|4:-----------17-15-----------17-15---------------------------------|-|
D|4:-------------------------------------------17-15-----------17-15-|---|
A|-------------------------------------------------------------------|---|
E|-------------------------------------------------------------------|---|
  w/wah-wah

E|-17-18-17-15-----17-18-17-15-----20-15-20-15-----20-15-20-15------|---|-
B|------------18-15-----------18-15---------------------------------|---|-
G|--------------------------------------------17-15-----------17-15-|-|-
D|------------------------------------------------------------------|---|-
A|------------------------------------------------------------------|---|-
E|------------------------------------------------------------------|---|-

E|-19-21-19-17-------------------------------------------------------|----
B|-------------19-17-------------------------------------------------|----
G|-------------------16-18-16-14-------------------------------------|3:--
D|-------------------------------16-14-------------------------------|4:--
A|-------------------------------------14-16-14-12-------2-4-2-0-----|--4-
E|-------------------------------------------------14-12---------2-0-|--4-

TABULATURE EXPLANATION:

1               ~~~~    H       P          T          .
-----------------------------------------------------------------|---|----
---9b----r---------7-------9^11---11^9--------9-14--------5------|-|----
-----------------------------------------------------------------|---|----
  bend  release  vibrato  hammer-on/pull-off   tap    staccato   repeat
 (1 whole step)                                                 last bar

1     tr~~~~~                                     P.H.
------------------------}5------------------------------------------------
---b9--b9----9(11)------}6--------4/5-8------------x------4-----------
------------------------}7-----------------0-0----------------------------
					   PM-/
 hold bend   trill   arpeggiate    slide  palm    muted   pinch/natural
(or pre-bend)				  mute	  strum     harmonics

1         T tr~~~                        ()/         /      *****
------------------------------------------------------------------------
---x---------9(16)--------------------9--------12--------14------7-----
------------------------------------------------------------------------
 pick slide  tapped trill  whammy bar: dive   pre-dive  pull up  flutter

Questions, comments, corrections etc. welcome.

Traq
		Piotr Traczyk
       [email protected]
 
 
Dream Theater - Caught In A Web Tab :: indexed at Ultimate Guitar.
Caught In A Web tabs @ 911Tabs

Quick tip, so you can enjoy Caught In A Web Tab even more:

If you spend just 10 seconds to register, you will be able to comment on all the chords and tabs and rate them. You will as well be able to comment on videos of your fellow guitarists and give them ratings from 1 to 5 ... And - of course - you can share your own videos with them and see what they think of you. :)
Click here to join us!

Show us your talent, perform Caught In A Web Tab!

Here you can post a video or audio performance. Tell me more ...
Where can we find your performance? Tell me more ...
Your comment:
Please, log in to post your performance.