Artists by letter: A B C D E F G H I J K L M N O P Q R S T U V W X Y Z 0-9

Break On Through Tab (ver 3) - Doors


 

Break On Through Tab
¡¡¡THIS IS THE CORRECT TAB!!! the previous tab was incorrect in the intro and outro

song:Break on through

artist:the doors

this tab was created for:rolando, and my mail is:[email protected]







INTRO

E]-----------│
B]-----------│
G]-----------│
D]-2-0-2-2-0-│
A]--0-2---2-0│
E]-----------│

You know the day destroys the night
Night divides the day



Try to run      Try to hide
E]-2------2--------2------2----|
B]-3------3--------3------3----|
G]-2------2--------2------2----|
D]-0------0--------0------0----|
A]-----------------------------|
E]-----------------------------|



Break on through to the other side
E]------------------------------|
B]------------------------------|
G]-----------------0h2p0--------|
D]-----------0h1h2-------2--0-2-|
A]-----0h1h2--------------------|
E]-0-3--------------------------|

Break on through to the other side
E]------------------------------|
B]------------------------------|
G]-----------------0h2p0--------|
D]-----------0h1h2-------2--0-2-|
A]-----0h1h2--------------------|
E]-0-3--------------------------|

Break on through to the other side
E]------------------------------|
B]------------------------------|
G]-----------------0h2p0--------|
D]-----------0h1h2-------2--0-2-|
A]-----0h1h2--------------------|
E]-0-3--------------------------|





E]-----------│
B]-----------│
G]-----------│
D]-2-0-2-2-0-│
A]--0-2---2-0│
E]-----------│





We chased our pleasures here
Dug our treasures there



But can you still recall The time we cried

E]-2------2--------2------2----|
B]-3------3--------3------3----|
G]-2------2--------2------2----|
D]-0------0--------0------0----|
A]-----------------------------|
E]-----------------------------|



Break on through to the other side
E]------------------------------|
B]------------------------------|
G]-----------------0h2p0--------|
D]-----------0h1h2-------2--0-2-|
A]-----0h1h2--------------------|
E]-0-3--------------------------|

Break on through to the other side
E]------------------------------|
B]------------------------------|
G]-----------------0h2p0--------|
D]-----------0h1h2-------2--0-2-|
A]-----0h1h2--------------------|
E]-0-3--------------------------|

Break on through to the other side
E]------------------------------|
B]------------------------------|
G]-----------------0h2p0--------|
D]-----------0h1h2-------2--0-2-|
A]-----0h1h2--------------------|
E]-0-3--------------------------|



E]-----------│
B]-----------│
G]-----------│
D]-2-0-2-2-0-│
A]--0-2---2-0│
E]-----------│





Everybody loves my baby
Everybody loves my baby
She get, She get, She get, She get high



E]-----------│
B]-----------│
G]-----------│
D]-2-0-2-2-0-│
A]--0-2---2-0│
E]-----------│



I found an island in your arms
Country in your eyes





Arms that chain us   Eyes that lie

E]-2------2--------2------2----|
B]-3------3--------3------3----|
G]-2------2--------2------2----|
D]-0------0--------0------0----|
A]-----------------------------|
E]-----------------------------|



Break on through to the other side
E]------------------------------|
B]------------------------------|
G]-----------------0h2p0--------|
D]-----------0h1h2-------2--0-2-|
A]-----0h1h2--------------------|
E]-0-3--------------------------|

Break on through to the other side
E]------------------------------|
B]------------------------------|
G]-----------------0h2p0--------|
D]-----------0h1h2-------2--0-2-|
A]-----0h1h2--------------------|
E]-0-3--------------------------|

Break on through to  how oh yeah
E]------------------------------|
B]------------------------------|
G]-----------------0h2p0--------|
D]-----------0h1h2-------2--0-2-|
A]-----0h1h2--------------------|
E]-0-3--------------------------|
                                           Pace (chords)
                                ___________________________________
                                ///    //\//                
                                ____________________________________



E]------------------------------|-12-12-12-12-12-12¦
B]------------------------------|-13-13-13-13-13-13¦
G]-----------------0h2p0--------|-14-14-14-14-14-14¦
D]-----------0h1h2-------2--0-2-|-14-14-14-14-14-14¦
A]-----0h1h2--------------------|-12-12-12-12-12-12¦
E]-0-3--------------------------|-12-12-12-12-12-12¦

E]-12-12-12-12-12-12¦
B]-13-13-13-13-13-13¦
G]-14-14-14-14-14-14¦
D]-14-14-14-14-14-14¦
A]-12-12-12-12-12-12¦
E]-12-12-12-12-12-12¦

Made the scene
Week to week
Day to day
Hour to hour





The gate is straight   Deep and wide

E]-2------2--------2------2----|
B]-3------3--------3------3----|
G]-2------2--------2------2----|
D]-0------0--------0------0----|
A]-----------------------------|
E]-----------------------------|











Break on through to the other side
E]------------------------------|
B]------------------------------|
G]-----------------0h2p0--------|
D]-----------0h1h2-------2--0-2-|
A]-----0h1h2--------------------|
E]-0-3--------------------------|

Break on through to the other side
E]------------------------------|
B]------------------------------|
G]-----------------0h2p0--------|
D]-----------0h1h2-------2--0-2-|
A]-----0h1h2--------------------|
E]-0-3--------------------------|

Break on through to the other side
E]------------------------------|
B]------------------------------|
G]-----------------0h2p0--------|
D]-----------0h1h2-------2--0-2-|        
A]-----0h1h2--------------------|
E]-0-3--------------------------|



E]-----------------¦--¦
B]-----------------¦--¦
G]-----------------¦--¦
D]-2~2~2~2~2~2~2~2-¦2-¦
A]--2~2~2~2~2~2~2~2¦2-¦
E]-----------------¦--¦

Yeah, yeah, yeah, yeah
Yeah, yeah, yeah, yeah, yeah


 
 
Doors - Break On Through Tab :: indexed at Ultimate Guitar.
Break On Through tabs @ 911Tabs

About the artist behind Break On Through Tab:

The Doors were an influential American rock band formed in 1965 in Los Angeles by vocalist Jim Morrison, keyboardist Ray Manzarek, drummer John Densmore, and guitarist Robby Krieger. They were a controversial band, due mostly to Morrison's cryptic lyrics and unpredictable stage persona. The band dissolved in 1972, one year after Morrison's death in 1971. They have sold over 45 million albums in the US alone, and still sell approximately 1 million annually.

Indexed at Wikipedia.

Show us your talent, perform Break On Through Tab!

Here you can post a video or audio performance. Tell me more ...
Where can we find your performance? Tell me more ...
Your comment:
Please, log in to post your performance.