Artists by letter: A B C D E F G H I J K L M N O P Q R S T U V W X Y Z 0-9

 
I Remember Tab
-------------------------------------------------------------------------------
                           I Remember - Damien Rice
-------------------------------------------------------------------------------
Tabbed by: Wouter Veerman
Email: [email protected]

Tuning: Standard
Capo: 2

Damien's part is a bit harsh to explain in a tab.. so here is a link to how it 
should sound when played according to this tab:
http://www.youtube.com/watch?v=4jgr6tBtJEw

Intro/Verse

e|----------]----------]----------]-------------0-------------|
B|----------]----------]--------3-]---------------3---------3-|
G|------0---]------2---]------0---]-----------0-----0-----2---|
D|----0-----]----0-----]----0-----]--------0h2----------0-----|
A|----------]----------]----------]--0-23--------------------|
E|--0-------]--2-------]--3-------]-------------------2-------|

e|---------------0-----------2h3---]----------]----------]----------------|
B|-----------------3-------------3-]----------]----------]-------(3)------|
G|-------------0-----0-----2-------]------0---]--2---2---]------0-------0-|
D|----------0h2----------0---------]----0-----]----0-----]----2-----0h2---|
A|--0-2-2h3------------------------]----------]----------]--3-------------|
E|---------------------2-----------]--3-------]--2-------]----------------|

Chorus 1
                            x4
e|---------------------0-----|
B|--------3--------------3---|
G|------0------------0-----0-|
D|----0-----------0h2--------|
A|----------0-2-3------------|
E|--3------------------------|

e|----------]----------]----------]---------------------------------|
B|----------]----------]--------3-]---------------3-----------------|
G|------0---]------2---]------0---]-------------0---0-------0-2---2-|
D|----0-----]----0-----]----0-----]----------0h2------2---2-----0---|
A|----------]----------]----------]--0-2-2h3------------3-----------|
E|--0-------]--2-------]--3-------]---------------------------2-----|

Chorus 2
                            x4
e|---------------------0-----|
B|--------3--------------3---|
G|------0------------0-----0-|
D|----0-----------0h2--------|
A|----------0-2-3------------|
E|--3------------------------|
                                                       x3
e|----------]----------]----------]---------------------|
B|----------]----------]--------3-]---------------3-----|
G|------0---]------2---]------0---]-------------0---0---|
D|----0-----]----0-----]----0-----]----------0h2------2-|
A|----------]----------]----------]--0-2-2h3------------|
E|--0-------]--2-------]--3-------]---------------------|

e|--------------|
B|--------------|
G|------0-----0-|
D|----2-----0---|
A|--3-----2-----|
E|--------------|

Damien's Part
           x4           x4
e|----------]------------]--1---3p1-----------1---]--1-/-3---5p3-----------3---|
B|------1-0-]------1---1-]----------1---1-------1-]--------------3---3-------3-|
G|------2-0-]------0h2-2-]----2-----------2-------]--------4-----------4-------|
D|----2-----]----3-------]--0---------0-----0-----]--0-------------0-----0-----|
A|--0-------]------------]------------------------]----------------------------|
E|----------]--1---------]------------------------]----------------------------| 
Or something like that ;]

x3
e|----------]--0--|
B|------1-0-]--0--|
G|------2-0-]--1--|
D|----2-----]--2--|
A|--0-------]--2--|
E|----------]--0--| Strum that last chord (E)

Now Damien starts singing and strumming these chords (same as above)

e|---0------0-----1h3--/--3h5--0-0---0---|
B|-0h1p0----1-----1----/--3----0h1---0---|
G|---2----0h2p0---2----/--4----0h2---1---|
D|---2------3-----0----/--0----0h2---2---|
A|---0------3------------------0-0---2---|
E|----------1------------------------0---|

Intro/Verse    x3
Chorus 1       x1
Intro/Verse    x2
Chorus 2       x1
Damien's Part

| /  slide up
|   slide down
| h  hammer-on
| p  pull-off
| ~  vibrato
| +  harmonic
| x  Mute note
===============================================================================
 
 
Damien Rice - I Remember Tab :: indexed at Ultimate Guitar.
I Remember tabs @ 911Tabs

About the artist behind I Remember Tab:

Damien Rice (born December 7, 1973) is an Irish folk singer. He was born in Dublin, Ireland, to George and Maureen Rice and was raised in Celbridge, County Kildare, Ireland. [1]

He has released five albums: O, B-Sides, 9, Live At Fingerprints Warts & All, and Live from the Union Chapel.

Indexed at Wikipedia.

Show us your talent, perform I Remember Tab!

Here you can post a video or audio performance. Tell me more ...
Where can we find your performance? Tell me more ...
Your comment:
Please, log in to post your performance.