Artists by letter: A B C D E F G H I J K L M N O P Q R S T U V W X Y Z 0-9

 

9 Crimes Tab
Okay this is my first tab so be nice =]
This is a gorgeous song.

1.
e--------------------------------------------------------------|
B-------0---1-------0---1-------0---1---3---1--0---------------|
G---2-----------2-----------2----------------------------------| repeat
D--------------------------------------------------------------|
A--------------------------------------------------------------|
E--------------------------------------------------------------|
[Leave me out of the waste. This is not what I do..]

2.
e--------------------------------------------------------------|
B---1---3---5-5------1--3----5--6---5----3---------------------| repeat
G--------------------------------------------------------------|
D--------------------------------------------------------------|
A--------------------------------------------------------------|
E--------------------------------------------------------------|
[its the wrong time..]

3.
e--------------------------------------------------------------|
B--1----888----1--------1--555--33--1-3-1-3-1---3--5--888-1--0-|
G--------------------------------------------------------------|
D--------------------------------------------------------------|
A--------------------------------------------------------------|
E--------------------------------------------------------------|
[is that all right yeah..to give my gun away when its loaded..]

Then go back to the beginning again for second verse where damien sings.
Leave your comments.
Email me on [email protected]
thanks.
x
 
 
Damien Rice - 9 Crimes Tab :: indexed at Ultimate Guitar.
9 Crimes tabs @ 911Tabs

About the artist behind 9 Crimes Tab:

Damien Rice (born December 7, 1973) is an Irish folk singer. He was born in Dublin, Ireland, to George and Maureen Rice and was raised in Celbridge, County Kildare, Ireland. [1]

He has released five albums: O, B-Sides, 9, Live At Fingerprints Warts & All, and Live from the Union Chapel.

Indexed at Wikipedia.

Show us your talent, perform 9 Crimes Tab!

Here you can post a video or audio performance. Tell me more ...
Where can we find your performance? Tell me more ...
Your comment:
Please, log in to post your performance.