Artists by letter: A B C D E F G H I J K L M N O P Q R S T U V W X Y Z 0-9

 
Brokenpromiseland Tab
-------------------------------------------------------------------------------
                             Brokenpromiseland - Bon Jovi - The Circle
-------------------------------------------------------------------------------
Tabbed by:Mark Duplock
Email:[email protected]

Tuning:Standard

- Intro -

e|-5-5-5-5-7----------------------|
B|----7------7-5-5-5-3-5-5-7------|
G|--------------------------6b-4--|
D|--------------------------------|
A|--------------------------------|
E|--------------------------------| x2

B         G
e|----------------------|
B|----------------------|
G|-4-4-4-4-4------------|
D|-4-4-4-4-4-5-5-5-5-5--|
A|-2-2-2-2-2-5-5-5-5-5--|
E|-----------3-3-3-3-3--| x2

- Verse -

Not sure if this part is right at all - Theres alot of echo (which I dont have) but I 
the chords are correct. I play each chord as 5 quick strums with a slide.

E           B
e|--------------------------|
B|--------------------------|
G|-9-9-9-9-9---------------|
D|-9-9-9-9-9-9-9-9-9-9----|
A|-7-7-7-7-7-9-9-9-9-9----|
E|------------7-7-7-7-7----| x4

- Pre-chorus -
e|----------------------------------------------------------------------|
B|-------------------------10-10-9-9------------------------------------|
G|-7-7-7-9-9-9-7-7-6-6-6-7----------7-7-7-9-9-9-7-7-6-6-6-6-7-7-9-9-----|
D|----------------------------------------------------------------------|
A|----------------------------------------------------------------------|
E|----------------------------------------------------------------------|
  Who's gonna bail out all our shattered dreams....

e|------------------------------------|
B|-------------------------10-10-9-9--|
G|-11-11-11-9-9-9-7-7-6-6-6-----------|
D|------------------------------------|
A|------------------------------------|
E|------------------------------------|

- Chorus -
   B               D               A              E
e|-------------------------------------------------------------------|
B|---------------------------------3-3-3-3-3-3-3-3-------------------|
G|-4-4-4-4-4-4-4-4-7-7-7-7-7-7-7-7-3-3-3-3-3-3-3-3-1-1-1-1-1-1-1-1---|
D|-4-4-4-4-4-4-4-4-7-7-7-7-7-7-7-7-3-3-3-3-3-3-3-3-2-2-2-2-2-2-2-2---|
A|-2-2-2-2-2-2-2-2-5-5-5-5-5-5-5-5-0-0-0-0-0-0-0-0-2-2-2-2-2-2-2-2---|
E|-------------------------------------------------0-0-0-0-0-0-0-0---|

B                D               A
e|--------------------------------------------------|
B|---------------------------------3-3-3-3-3-3-3-3--|
G|-4-4-4-4-4-4-4-4-7-7-7-7-7-7-7-7-3-3-3-3-3-3-3-3--|
D|-4-4-4-4-4-4-4-4-7-7-7-7-7-7-7-7-3-3-3-3-3-3-3-3--|
A|-2-2-2-2-2-2-2-2-5-5-5-5-5-5-5-5-0-0-0-0-0-0-0-0--|
E|--------------------------------------------------|
Repeat once then end with -

E               A
e|---------------------|
B|-----------------3---|
G|-1-1-1-1-1-1-1-1-3---|
D|-2-2-2-2-2-2-2-2-3---|
A|-2-2-2-2-2-2-2-2-0---|
E|-0-0-0-0-0-0-0-0-----|
(the second chorus ends on a B)

That's basically it, I'll let someone more talented tab the solo.
This is my 1st tab, so be gentle!

************************************

| /   slide up
|    slide down
| h   hammer-on
| p   pull-off
| ~   vibrato
| +   harmonic
| x   Mute note
| b   Bend
| pb  Pre-bend
| br  Bend release
| pbr Pre-bend release
| brb Bend release bend

************************************
 
 
Bon Jovi - Brokenpromiseland Tab :: indexed at Ultimate Guitar.
Brokenpromiseland tabs @ 911Tabs

About the artist behind Brokenpromiseland Tab:

Jon Bon Jovi (born John Francis Bongiovi, Jr. on March 2, 1962) is an American musician, songwriter and actor. As lead singer and founder of the rock band Bon Jovi, he has sold over 120 million albums worldwide.[1] He is also the owner of an Arena Football League team, the Philadelphia Soul.

Indexed at Wikipedia.

Show us your talent, perform Brokenpromiseland Tab!

Here you can post a video or audio performance. Tell me more ...
Where can we find your performance? Tell me more ...
Your comment:
Please, log in to post your performance.