Artists by letter: A B C D E F G H I J K L M N O P Q R S T U V W X Y Z 0-9

 
Suffer Some More Tab
--- B E H E A D E D  --- 
                            "Suffer Some More" 
                     From album: "Resurgence Of Oblivion" 
                     Copyright Forever Underground Recs. 2000 

TABULATURE LEGEND: 
                   " - tremolo             h - hammer on            
                   ~ - vibrato              - slide down 
                   p - pull off            / - slide down 
                  tr - trill               ^ - pinch harmonics      
                (),= - sustained note      b - bend string          
                p.m. - palm muting         t - tapping

TUNING: C (C, F, Bb, Eb, G, C)

[Riff 1 
||--------------[x4]-||-||--------------[x4]-||-||--------------[x4]-||- 
||o-----------------o||-||o-----------------o||-||o-----------------o||- 
||-------------------||-||-------------------||-||-------------------||- 
||-------------------||-||--------------4-3--||-||--------------4-3--||- 
||o-5-4-3-----------o||-||o-5-4-3-4-5-4-2-1-o||-||o-5-4-3-4-5-4-2-1-o||- 
||--3-2-1------------||-||--3-2-1-2-3-2------||-||--3-2-1-2-3-2------||- 
|                     | |                     | |   . . . . . . . .   | 
||--------------[x4]-||-||--------------[x4]-||-||--------------[x4]-||- 
||o-----------------o||-||o-----------------o||-||o-----------------o||- 
||-------------------||-||-------------------||-||-------------------||- 
||--------------4-3--||-||--------------4-3--||-||--------------4-3--||- 
||o-5-4-3-4-5-4-2-1-o||-||o-5-4-3-4-5-4-2-1-o||-||o-5-4-3-4-5-4-2-1-o||- 
||--3-2-1-2-3-2------||-||--3-2-1-2-3-2------||-||--3-2-1-2-3-2------||- 
                                                    . . . . . . . .

-||--------------[x4]-|| 
-||o-----------------o|| 
-||-------------------|| 
-||--------------4-3--|| 
-||o-5-4-3-4-5-4-2-1-o|| 
-||--3-2-1-2-3-2------|| 
 |                     | 
-||--------------[x4]-|| 
-||o-----------------o|| 
-||-------------------|| 
-||--------------4-3--|| 
-||o-5-4-3-4-5-4-2-1-o|| 
-||--3-2-1-2-3-2------||

natural harmonics 
|--------------------- 
|--------------------- 
|--------------------- 
|-...............-- 
|--------------------- 
|---------------------

[Riff 2 (x3)]                             [outro] 
||------------------------------------|| |-----------------------------------| 
||o----------------------------------o|| |-----------------------------------| 
||------------------------------------|| |-----------------------------------| 
||------------------------------------|| |--------------------------....--| 
||o-------------------------22221111-o|| |-----------------------------------| 
||--333322221111222233332222----------|| |-333322221111222233332222----------| 
|                                      | |                                   | 
||------------------------------------|| |-----------------------------------| 
||o----------------------------------o|| |-----------------------------------| 
||------------------------------------|| |-----------------------------------| 
||------------------------------------|| |-----------------------------------| 
||o-------------------------22221111-o|| |-------------------------22221111--| 
||--333322221111222233332222----------|| |-333322221111222233332222----------|

[RIFF 2 (x4)]

[Riff 3 (x2)] 
||----------------|---------------|---------------|----------------|| 
||o---------------|---------------|---------------|---------------o|| 
||----------------|---------------|---------------|----------------|| 
||----------------|---------------|---------------|----------------|| 
||o-6-5-2--3------|-6-5-2--3------|-6-5-2--3------|-4/5--5--6--6--o|| 
||--4-3-0--1--0-0-|-4-3-0--1--0-0-|-4-3-0--1--0-0-|-2/3--3--4--4---|| 
    . . .  .  . .   . . .  .  . .   . . .  .  . .

[break] 
|------------| 
|------------| 
|------------| 
|------------| 
|-6-5-2------| 
|-4-3-0------| 
  . . .

[RIFF 3 /slow/ (x4)]

[outro 2] 
|-----------------|-----------------|-----------------|---------------| 
|-----------------|-----------------|-----------------|---------------| 
|-----------------|-----------------|-----------------|---------------| 
|-----------------|-----------------|-----------------|---------------| 
|---3---3---3-7-6-|---3---3---3-7-6-|---3---3---3-7-6-|---3---3-7--6--| 
|-0-1-0-1-0-1-5-4-|-0-1-0-1-0-1-5-4-|-0-1-0-1-0-1-5-4-|-0-1-0-1-5--4--| 
                                                                .  .

[Riff 4a (x2)] 
||------------------|-----------------|-----------------|-------------------|| 
||o-----------------|-----------------|-----------------|------------------o|| 
||------------------|-----------------|-----------------|-------------------|| 
||------------------|-----------------|-----------------|-------------------|| 
||o---3---3---3-7-6-|---3---3---3-7-6-|---3---3---3-7-6-|---3---3---3-7-6--o|| 
||--0-1-0-1-0-1-5-4-|-0-1-0-1-0-1-5-4-|-0-1-0-1-0-1-5-4-|-0-1-0-1-0-1-5-4---||

[Riff 4b (x2)] 
||------------------|--------------------|| 
||o-----------------|-------------------o|| 
||------------------|--------------------|| 
||------------------|--------------------|| 
||o---3---3---3-7-6-|---3---3---3--7--6-o|| 
||--0-1-0-1-0-1-5-4-|-0-1-0-1-0-1--5--4--|| 
|                   |                     | 
||------------------|--------------------|| 
||o-----------------|-------------------o|| 
||------------------|--------------------|| 
||--------------^-^-|--------------------|| 
||o---3---3---3-3-2-|---3---3---3-2~~---o|| 
||--0-1-0-1-0-1-----|-0-1-0-1-0-1--------||

[RIFF 4a]

[Riff 4b (x4)] 
||------------------------------------|| 
||o----------------------------------o|| 
||------------------------------------|| 
||------------------------------------|| 
||o----------------------------------o|| 
||--00001111000011110000111155554444--||

[RIFF 3 9x2)]

[Ending] 
|---------------------|------------| 
|---------------------|------------| 
|---------------------|------------| 
|--------.........-|------------| 
|-6-5-2---------------|-6-5-2------| 
|-4-3-0---------------|-4-3-0------| 
  . . .                 . . .

END OF SONG
 
 
Beheaded - Suffer Some More Tab :: indexed at Ultimate Guitar.
Suffer Some More tabs @ 911Tabs

Quick tip, so you can enjoy Suffer Some More Tab even more:

After the registration (which takes just 10 seconds, remember?) you will be able to use your profile - your very own piece of YourChords.com.

Show us your talent, perform Suffer Some More Tab!

Here you can post a video or audio performance. Tell me more ...
Where can we find your performance? Tell me more ...
Your comment:
Please, log in to post your performance.