Artists by letter: A B C D E F G H I J K L M N O P Q R S T U V W X Y Z 0-9

 
Mona Lisa Tab
/= slide up
= slide down
h= hammer on
v= down strum
^= up strum
p= pick with your left finger(hand)

Intro:   G
E-----------------------------------------------------------------------------|
B--------3------------0-------------------------------------------------------|
G----------4-------4----------------------------------------------------------|
D------------5---5--------------5/75-----------------------------------------|
A-----5--------5---------0h3--------------------------------------------------|
E--3--------------------------------------------------------------------------|

Repeat ^ that 4x . so all together 4x ..
 Verse       Gm			C9 (?,dunno)
E--------------------------------------------3--------3-----------------------|
B---------3----------3p0--------3---------3--------3--------------------------|
G------------------------------5------5-------5-------5-----------------------|
D------5-------4h5---------5----------5-------5-------5-----------------------|
A----5-------5------------3---------------------------------------------------|
E--3--------------------------------------------------------------------------|

Repeat ^ that 3x  so all together 3x  
			C
      Em    D      (W/ G as bass note)	D	G
E-------|---2---|-------------------------|---2----|---3----------------------|
B-------|---3---|--1---------------------|---3-----|---3----------------------|
G-------|---2---|-------------------------|---2----|--------------------------|
D--2---|--------|--2---------------------|---------|--------------------------|
A--2---|--------|--3---------------------|---------|----2---------------------|
E-------|--------|--3---------------------|---------|----3--------------------|
     G	     D	      C
E--3----|---2----|--------|---------------------------------------------------|
B--3----|---3----|--1----|----------------------------------------------------|
G-------|---2----|--------|---------------------------------------------------|
D-------|---------|--2----|---------------------------------------------------|
A--2----|---------|--3----|---------------------------------------------------|
E--3----|---------|--3----|---------------------------------------------------|

The strumming pattern ..
^ = up strum (dunno what its normally called )
v = down strum
` = half a beat
``= A beat
for all of the chords ..

Em
Pre Chorus:      Em		D	   C	         C          D   G
|v ` ^ ` ^ v ^|v ` ^ ` ^ v ^|v ` ^ ` ^ v ^|v ` ^ v ^ v ^|
enters straight away into chorus .
Chorus:
G		D   C
|v v ` ^ v ^|v v ^ ` v ^ v ^|

Intro:   G
E-----------------------------------------------------------------------------|
B--------3------------0-------------------------------------------------------|
G----------4-------4----------------------------------------------------------|
D------------5---5--------------5/75-----------------------------------------|
A-----5--------5---------0h3--------------------------------------------------|
E--3--------------------------------------------------------------------------|

Repeat 2x... all together 2x......

Verse       Gm			C9 (?,dunno)
E--------------------------------------------3--------3-----------------------|
B---------3----------3p0--------3---------3--------3--------------------------|
G------------------------------5------5-------5-------5-----------------------|
D------5-------4h5---------5----------5-------5-------5-----------------------|
A----5-------5------------3---------------------------------------------------|
E--3--------------------------------------------------------------------------|

Repeat 3x... all together 3x.....
			C
      Em    D      (W/ G as bass note)	D	G
E-------|---2---|-------------------------|---2----|---3----------------------|
B-------|---3---|--1---------------------|---3-----|---3----------------------|
G-------|---2---|-------------------------|---2----|--------------------------|
D--2---|--------|--2---------------------|---------|--------------------------|
A--2---|--------|--3---------------------|---------|----2---------------------|
E-------|--------|--3---------------------|---------|----3--------------------|
     G	     D	      C
E--3----|---2----|--------|---------------------------------------------------|
B--3----|---3----|--1----|----------------------------------------------------|
G-------|---2----|--------|---------------------------------------------------|
D-------|---------|--2----|---------------------------------------------------|
A--2----|---------|--3----|---------------------------------------------------|
E--3----|---------|--3----|---------------------------------------------------|

Em
Pre Chorus:      Em		D	   C	         C          D   G
|v ` ^ ` ^ v ^|v ` ^ ` ^ v ^|v ` ^ ` ^ v ^|v ` ^ v ^ v ^|
enters straight away into chorus .
Chorus:
G		D   C
|v v ` ^ v ^|v v ^ ` v ^ v ^|

Bridge
     Em	      C         G	      D	     Em      D
E-------|---------|---3----|--2----|--------|----2--|------------------------|
B-------|---1----|---3----|--3----|--------|----3--|-------------------------|
G-------|---------|--------|--2----|--------|----2--|------------------------|
D--2---|---2-----|--------|--------|---2---|-------|-------------------------|
A--2---|---3-----|--2----|---------|--2----|------|--------------------------|
E-------|---3-----|--3----|--------|--------|-------|------------------------|

Em	C	G	D	  Em	  D
|v v ^v|^ ^ v^|v v ^v|^ ^ v^|v v ^v|^ ^ ^v^|
Can't really help with this beat but I'll try .
On the first beat from the second measure and on is an extra up beat like louder and 
than the other beats so like daaa daaa dada DA da etc  .

G	     D	      C
E--3----|---2----|--------|---------------------------------------------------|
B--3----|---3----|--1----|----------------------------------------------------|
G-------|---2----|--------|---------------------------------------------------|
D-------|---------|--2----|---------------------------------------------------|
A--2----|---------|--3----|---------------------------------------------------|
E--3----|---------|--3----|---------------------------------------------------|

Repeat 4x  all together 4x  .
After stay on C for 8 beats ..

|v v v v| v v v v|   
 
 
All-american Rejects - Mona Lisa Tab :: indexed at Ultimate Guitar.
Mona Lisa tabs @ 911Tabs

Quick tip, so you can enjoy Mona Lisa Tab even more:

After the registration (which takes just 10 seconds, remember?) you will be able to use your profile - your very own piece of YourChords.com.

Show us your talent, perform Mona Lisa Tab!

Here you can post a video or audio performance. Tell me more ...
Where can we find your performance? Tell me more ...
Your comment:
Please, log in to post your performance.