Artists by letter: A B C D E F G H I J K L M N O P Q R S T U V W X Y Z 0-9

 
Sure Thing Falling Tab
Song: Sure Thing Falling
Artist: Yellowcard
Tabbed By: Brad Schantz ([email protected])

Drop D Tuning, Whole Step Down (aka Drop C) - [C G C F A D]

**If you usually play in standard tuning, I would strongly suggest using heavier
strings for this song so it doesn't end up sounding like a total mess when you
tune it down.**

I know there are more little guitar riffs you can hear in the background at times
(especially during the end of the song), but I just tabbed out the major parts.

Intro - Guitar 1

e|--------------------------------------------------|
B|--------------------------------------------------|
G|--------------------------------------------------|
D|-----------------------------------------0--2--4--|
A|--------0--5--4--0--4--2-----2--0-----0-----------|
E|--0--5--------------------5--------4--------------|

e|--------------------------------------------------|
B|--------------------------------------------7*----|
G|-----------------------------------------------7*-|
D|-----------------------------------------7*-------|
A|--------0--5--4--0--4--2-----2--0-----0-----------|
E|--0--5--------------------5--------4--------------|

* = harmonics

Intro - Guitar 2

e|-------------------------------------------------------------------|
B|-------------------------------------------------------------------|
G|-------------------------------------------------------------------|
D|-5-5-5-5-5-5-5-5-5-5-5-5-5-5-5-5-5-0-0-0-0-0-0-0-0-0-0-0-0-0-0-0-0-|
A|-5-5-5-5-5-5-5-5-5-5-5-5-5-5-5-5-5-0-0-0-0-0-0-0-0-0-0-0-0-0-0-0-0-|
E|-5-5-5-5-5-5-5-5-5-5-5-5-5-5-5-5-5-0-0-0-0-0-0-0-0-0-0-0-0-0-0-0-0-|

e|-------------------------------------------------------------------|
B|-------------------------------------------------------------------|
G|-------------------------------------------------------------------|
D|-5-5-5-5-5-5-5-5-5-5-5-5-5-5-5-5-5-0-0-0-0-0-0-0-0-0-0-0-0-4-------|
A|-5-5-5-5-5-5-5-5-5-5-5-5-5-5-5-5-5-0-0-0-0-0-0-0-0-0-0-0-0-4-------|
E|-5-5-5-5-5-5-5-5-5-5-5-5-5-5-5-5-5-0-0-0-0-0-0-0-0-0-0-0-0-4-------|



Verse - Guitar 1 (clean)

e|------------------------------------------|
B|------------------------------------------|
G|------------------------------------------|
D|-------------0----------------0-----------| x2
A|-------0--4-----0----------------4-----0--|
E|--5----------------------0----------0-----|

e|---------------------------------------------------------|
B|---------------------------------------------------------|
G|---------------------------------------------------------|
D|------------0-------------0------------------0-----------|
A|-------4-----------------------0----------------4-----0--|
E|--2------------------5------------------0----------0-----|

Verse - Guitar 2

e|-----------------------------------------------------------------|
B|-----------------------------------------------------------------|
G|-----------------------------------------------------------------|
D|-5-5-5-5-5-5-5-5-5-5-5-5-5-5-5-5-0-0-0-0-0-0-0-0-0-0-0-0-0-0-0-0-| x2
A|-5-5-5-5-5-5-5-5-5-5-5-5-5-5-5-5-0-0-0-0-0-0-0-0-0-0-0-0-0-0-0-0-|
E|-5-5-5-5-5-5-5-5-5-5-5-5-5-5-5-5-0-0-0-0-0-0-0-0-0-0-0-0-0-0-0-0-|
p.m................................................................

e|-----------------------------------------------------------------|
B|-----------------------------------------------------------------|
G|-----------------------------------------------------------------|
D|-2-2-2-2-2-2-2-2-5-5-5-5-5-5-5-5-0-0-0-0-0-0-0-0-0-0-0-0-0-0-0-0-| x2
A|-2-2-2-2-2-2-2-2-5-5-5-5-5-5-5-5-0-0-0-0-0-0-0-0-0-0-0-0-0-0-0-0-| 
E|-2-2-2-2-2-2-2-2-5-5-5-5-5-5-5-5-0-0-0-0-0-0-0-0-0-0-0-0-0-0-0-0-|
p.m................................................................



Chorus

e|-----------------------------------------------------------------|
B|-----------------------------------------------------------------|
G|-----------------------------------------------------------------|
D|-0-0-0-0-0-0-0-0-0-0-0-0-0-0-0-0-5-5-5-5-5-5-5-5-5-5-5-5-5-5-5-5-| x2
A|-0-0-0-0-0-0-0-0-0-0-0-0-0-0-0-0-5-5-5-5-5-5-5-5-5-5-5-5-5-5-5-5-|
E|-0-0-0-0-0-0-0-0-0-0-0-0-0-0-0-0-5-5-5-5-5-5-5-5-5-5-5-5-5-5-5-5-|

e|-----------------------------------------------|
B|-----------------------------------------------|
G|--4---4---x--------------5----5---x------------|
D|--4---4---x---2--2--2----5----5---x---0--0--0--| x2
A|--2---2---x---2--2--2----3----3---x---0--0--0--| 
E|--------------2--2--2-----------------0--0--0--|



Bridge

e|---------------------------------------------------------------|
B|---------------------------------------------------------------|
G|---------------------------------------------------------------|
D|--9-9---9-9-9---9-5-5---5-5-5---5-0-0---0-0-0---0-7-7---7-7-7--|
A|--9-9---9-9-9---9-5-5---5-5-5---5-0-0---0-0-0---0-7-7---7-7-7--|
E|--9-9---9-9-9---9-5-5---5-5-5---5-0-0---0-0-0---0-7-7---7-7-7--|

*Keep playing Bridge chords while Guitar 1 plays intro*



Violin Solo (for guitar)

e|--15--14--------------------------15--14------------------------|
B|----------15----------------15------------15----------------15--|
G|--------------14----12--14--------------------14----12--14------|
D|----------------------------------------------------------------|
A|----------------------------------------------------------------|
E|----------------------------------------------------------------|

e|--15--14--------------------------15--14----------17------15--14--|
B|----------15----------------15------------15----------------------|
G|--------------14----12--14--------------------14------14----------|
D|------------------------------------------------------------------| x2
A|------------------------------------------------------------------|
E|------------------------------------------------------------------|

e|--15~---15~---14~---|
B|--------------------|
G|--------------------|
D|--------------------|
A|--------------------|
E|--------------------|

 
 
Yellowcard - Sure Thing Falling Tab :: indexed at Ultimate Guitar.
Sure Thing Falling tabs @ 911Tabs

About the artist behind Sure Thing Falling Tab:

Yellowcard is an alternative rock multi-platinum selling band from Jacksonville, Florida. Their music features a rare contribution to the genre, incorporating the use of a violin.

The band is not currently active and is on a self-described "indefinite hiatus."

Indexed at Wikipedia.

Show us your talent, perform Sure Thing Falling Tab!

Here you can post a video or audio performance. Tell me more ...
Where can we find your performance? Tell me more ...
Your comment:
Please, log in to post your performance.