Artists by letter: A B C D E F G H I J K L M N O P Q R S T U V W X Y Z 0-9

 
Troublemaker Tab
This is my tab of the song (no one else got it right).

Artist: Weezer
Song: Troublemaker
Album: The Red Album

Tuned 1/2 step down (Eb Ab Db Gb Bb Eb)

|-------------------------------------------------|
|-----------7---7-7-----------7---7-7-------------|
|--6--X-X---7---7-7----6------7---7-7-------------|
|--7--X-X---7---7-7----7--X---7---7-7-------------|
|--7--X-X---5---5-5---X7--X---5---5-5--X----------|
|--5--X-X-------------X5--X------------X----------|

"How's this for arts and crafts"
|------------------------------------------------|
|------------------------------------------------|
|----77--77--77--77--77--77--77--7---------------|
|----XX--XX--XX--XX--XX--XX--XX--X---------------|
|----55--55--55--55--55--55--55--5---------------|
|------------------------------------------------|

"Marryin' a biatch..."
|-------------------------------------------------|
|-------------------------------------------------|
|-------------------------------------------------|
|---7--7--7--7--7--7--7--7--7--7--7--7--7--7--7---|
|-------------------------------------------------|
|-------------------------------------------------|

Chorus:
|-------------------------------------------------|
|-------------------------------------------------|
|-----X-X---7---7-7-----------7---7-7-------------|
|--7--X-X---7---7-7----7--X---7---7-7-------------|
|--7--X-X---5---5-5---X7--X---5---5-5--X----------|
|--5--X-X-------------X5--X------------X----------|

Breakdown:
|---------------------------------|
|---------------------------------|
|---------------------------------|  
|--2-2-2-2-2-2-2-2-2-2-2-2-2-2-2-2|X2
|--0-0-0-0-0-0-0-0-0-0-0-0-0-0-0-0|
|---------------------------------|

|----------------------------------|
|----------------------------------|
|----------------------------------|
|--3-3-3-3-3-3-3-3-4-4-4-4-4-4-4-4-|
|--0-0-0-0-0-0-0-0-0-0-0-0-0-0-0-0-|
|----------------------------------|

|---------------------------------|
|---------------------------------|
|---------------------------------|  
|--2-2-2-2-2-2-2-2-2-2-2-2-2-2-2-2|  
|--0-0-0-0-0-0-0-0-0-0-0-0-0-0-0-0|
|---------------------------------|

|-------------------------------------------------|
|--10-10-10-10-10-10-10-10-10-10-10-10-10-10-10-10|
|-------------------------------------------------|
|-------------------------------------------------|
|-------------------------------------------------|
|-------------------------------------------------|

|-------------------------------------------------------------|
|--10-10-10-10-10-10-10-10-10-10/14-14-14-14-14-14-14-14-14--|
|-------------------------------------------------------------|
|-------------------------------------------------------------|
|-------------------------------------------------------------|
|-------------------------------------------------------------|

Finish with:
|-------------------------------------------------|
|-----------7---7-7-----------7---7-7-------------|
|--6--X-X---7---7-7----6------7---7-7-------------|
|--7--X-X---7---7-7----7--X---7---7-7-------------|
|--7--X-X---5---5-5---X7--X---5---5-5--X----------|
|--5--X-X-------------X5--X------------X----------|

|-------------|
|-------------|
|-------------|
|--7---------|
|--7---------|
|--5---------|

Super easy yet amazing.comment and rate =)
 
 
Weezer - Troublemaker Tab :: indexed at Ultimate Guitar.
Troublemaker tabs @ 911Tabs

About the artist behind Troublemaker Tab:

Weezer (IPA: /ˈwizɚ/) is a Grammy nominated American rock band from Los Angeles, California formed in 1992 by Rivers Cuomo (lead vocals, guitar), Patrick Wilson (drums, backing vocals), Matt Sharp (bass, backing vocals), and Jason Cropper (guitar, backing vocals), with the last two replaced by Mikey Welsh and Brian Bell, respectively. Mikey Welsh was later replaced with Scott Shriner.[1] They have released six full-length albums, three EPs, and a DVD; the first album was later re-released as a remastered deluxe edition in 2004. Weezer recently released their sixth album on June 3, 2008. They have sold more than 7 million records to date in the US.[2]

Indexed at Wikipedia.

Show us your talent, perform Troublemaker Tab!

Here you can post a video or audio performance. Tell me more ...
Where can we find your performance? Tell me more ...
Your comment:
Please, log in to post your performance.