Artists by letter: A B C D E F G H I J K L M N O P Q R S T U V W X Y Z 0-9

 
Cousins Tab
hey this tab is pretty accurate. i did it by ear so don't get mad if somethings 
wrong please. buy the album the 11th of this month!!!!

Cousins by Vampire Weekend off of the album Contra

part 1

|---------------------------------------------7-|
|---------------------------------------------7-|
|--------9----------99999----------9----------8-|
|--6--8--8----6--8--88888----6--8--8----6--8--9-|
|-7--9---9---7--9---99999---7--9---9---7--9---9-|
|---------------------------------------------7-|
 continue until singing begins (x4)



part 2 (tremolo part)  
 
each "t" stands for tremolo, you play the note 4 times.

|----------------------------------------------------------|
|-17t-16t-14t-12t-11t-12t-11t-9t-7t-9t-7t-5t-5-4h5p4h5p4-0-|
|----------------------------------------------------------|  (x2)
|----------------------------------------------------------|
|----------------------------------------------------------|
|----------------------------------------------------------|



part 3 (chorus)

|------------------------------------|
|------------------------------------|
|-9---9---9---8~------9---9---9---8~-|
|-9---9---8---9~------9---9---8---9~-|
|-7---7---9---9~------7---7---9---9~-|
|-------------7~------------------7~-|



part 4 (cool riff)

|-12-12p11p9------------|
|------------12p11p9----|
|--------------------11-| (x6) there's a B chord after the 3rd and 6th time.
|-----------------------|
|-----------------------|
|-----------------------|

part 5 (bell part)

|-------------------------|
|-------------------------|
|-8--9--11--9--6--8--4--6-|
|-------------------------|
|-------------------------|
|-------------------------|

there is no other tab out there that is more accurate than this one, so 
enjoy :).   go vampire Weekend!

tabbed by Jake T.
 
 
Vampire Weekend - Cousins Tab :: indexed at Ultimate Guitar.
Cousins tabs @ 911Tabs

About the artist behind Cousins Tab:

Vampire Weekend is an indie rock band from New York City, formed in 2006 and signed to XL Recordings.

Indexed at Wikipedia.

Show us your talent, perform Cousins Tab!

Here you can post a video or audio performance. Tell me more ...
Where can we find your performance? Tell me more ...
Your comment:
Please, log in to post your performance.