Artists by letter: A B C D E F G H I J K L M N O P Q R S T U V W X Y Z 0-9

 
Paralyzed Tab
-------------------------------------------------------------------------------
                             Paralyzed - The Used
-------------------------------------------------------------------------------
Tabbed by: MyChemicalLife a.k.a AblinkVboxa
Email: [email protected] *feel free to e-mail with comments or corrections*

Tuning: Standard (EADGBe)

I tabbed this from the instrumental video that The Used had made.
Because this song isn't released yet...but I cant wait lol.
This is very rough..like seriously..this took me 10 minutes.
But when the album is released I will update it.
(I just don't want to spend forever on it..and then the song is in a different order or something :/ )

e|-------------------------------------------------|
B|-------------------------------------------------|
G|-------------------------------------------------|  X 2
D|-------------------------------------------------|
A|-9-9-9------------5-5-5--5-5-2-4-5-4-------------|
E|------2-4-5-9-10-9-------------------------------|
  . . . . . . . . . . . . . . . . . . .

e|-----------------------------------------------|--Last ending----------|
B|-----------------------------------------------|-----------------------|
G|11-11-11----------------7-7-7--7-7-4-6-7-6-----|-7-7-7-7-7-9-99/11-----|
D|11-11-11-4-6-7-11-12-11-7-7-7--7-7-4-6-7-6--X2-|-7-7-7-7-7-9-99/11-----|
A|9--9--9--2-6-5-11-12-11-5-5-5--5-5-2-4-5-4-----|-5-5-5-5-5/7-77/9------|
E|---------2-4-5--9-10-9-------------------------|-----------------------|
                                                         not 100% ^^

e|------5---(5)------5---(5)-------5---(5)--------------------0-------5---(5)-|
B|--------7------------7-------------7-----------3----------------------7-----|
G|-------------------------------------------------2-------4------------------|
D|-4-4-----------4-4----------4-4-----------0-0----------4--------4-4---------|
A|-----------------------------------------------------2----------------------|
E|----------------------------------------------------------------------------|

Repeat the chorus etc.

bridge part

e|-------------------------------|--------------------------------------------|
B|-------------------------------|---horn-part->--11\-11\-11\-11\---------|
G|-77777-9/111111--9/11/97/9----|----------------11\-11\-11\-11\---------|
D|-77777-9/111111--9/11/97/9----|----------------9-\--9\--9\--9\---------|
A|-55555-7/999999--7/9-/75/7----|--------------------------------------------|
E|-------------------------------|--------------------------------------------|

e|---------------------------------------|
B|---------------------------------------|
G|-11-1111--7-77/--11-1111-xxxxx-7-77/--|
D|-11-1111--7-77/--11-1111-xxxxx-7-77/--|
A|--9--9-9--5-55/---9-9-9--xxxxx-5-55/--|
E|---------------------------------------|

the chorus just repeats etc.

A LOT more updating to be done!!!

Have fun so far!

| /  slide up
|   slide down
| h  hammer-on
| p  pull-off
| ~  vibrato
| +  harmonic
| x  Mute note
===============================================================================
 
 
Used - Paralyzed Tab :: indexed at Ultimate Guitar.
Paralyzed tabs @ 911Tabs

About the artist behind Paralyzed Tab:

The Used is a rock band from Orem, Utah. Their sound has been classified under many genres and subgenres of rock. They signed with Reprise Records in late 2001 and rose to fame in June 2002 after releasing their debut self-titled album, The Used. They followed up with their second album, In Love and Death, in September 2004 and their third album, Lies for the Liars, in May 2007. An EP, Shallow Believer, was released in February 2008 that featured the band's B-sides. They are currently working on their fourth studio album, due out in late 2008. They have achieved a Gold or Platinum status in over 6 countries worldwide.[4]

Indexed at Wikipedia.

Show us your talent, perform Paralyzed Tab!

Here you can post a video or audio performance. Tell me more ...
Where can we find your performance? Tell me more ...
Your comment:
Please, log in to post your performance.