Artists by letter: A B C D E F G H I J K L M N O P Q R S T U V W X Y Z 0-9

Blue And Yellow Tab (ver 3) - Used


 
Blue And Yellow Tab
the used
blue and yellow tab
Tuning: Drop D Tuning (DADGBe)

intro 2 times
-------------------------------------------------|
-------------------------------------------------|
---10-10-10-10--9--9----10-10-10-10-10-10-10-10--|
---x--x--x--x---x--x--0--8--8--8--8--8--8--8--8--|
---8--8--8--8---7--7--0--8--8--8--8--8--8--8--8--|
-0-0--0--0--0---0--0--0--8--8--8--8--8--8--8--8--|

piano to guitar
-------------------------------------------------|
---------5---------6-----------------------------|
---7--------------------------7------------------|
-------------------------------------------------|
-------------------------------------------------|
-------------------------------------------------|

Verse 4 times
-------------------------------------------------|
-------------------------------------------------|
---10-10-10-10--9--9----10-10-10-10-10-10-10-10--|
---x--x--x--x---x--x--0--8--8--8--8--8--8--8--8--|
---8--8--8--8---7--7--0--8--8--8--8--8--8--8--8--|
-0-0--0--0--0---0--0--0--8--8--8--8--8--8--8--8--|

Pre-Chorus
Second Guitar (Verse after 2 times)
----------------------------|
---10-10-10-10--------------|
----------------------------|
----------------------------|
----------------------------|
----------------------------|

Pre-Chorus
Second Guitar (I think this is accurate)
----------------------------|
-----6-----6-----6-----6----|
--9-9---9-9---9-9---9-9-----| goes through
----------------------------| about 6 times.
----------------------------|
----------------------------|

Chorus
-------------------------------------------------|
-------------------------------------------------|
-12-12-12-12-12-12-12-12-12-12-12-12-12-12-12-12-|
-10-10-10-10-10-10-10-10-10-10-10-10-10-10-10-10-|
-10-10-10-10-10-10-10-10-10-10-10-10-10-10-10-10-|
-10-10-10-10-10-10-10-10-10-10-10-10-10-10-10-10-|
              16 times each
-------------------------------------------------|
-------------------------------------------------|
10-10-10-10-10-10-10-10-10-10-10-10-10-10-10-10--|
-8--8--8--8--8--8--8--8--8--8--8--8--8--8--8--8--|
-8--8--8--8--8--8--8--8--8--8--8--8--8--8--8--8--|
-8--8--8--8--8--8--8--8--8--8--8--8--8--8--8--8--|

-------------------------------------------------|
-------------------------------------------------|
-5-5-5-5-5-5-5-5-5-5-5-5-5-5---------------------|
-0-0-0-0-0-0-0-3-3-3-3-3-3-3---------------------|
-0-0-0-0-0-0-0-3-3-3-3-3-3-3---------------------|
-0-0-0-0-0-0-0-3-3-3-3-3-3-3---------------------|

Bridge
-------------------------------------------------|
-------------------------------------------------|
-------------------------------------------------|
-3-----8h10h8--8-8-8-8-8-8-8---------------------|
-3-----8h10h8--8-8-8-8-8-8-8---------------------|
-3-----8h10h8--8-8-8-8-8-8-8---------------------|
               * * * * * * *
-------------------------------------------------|
-------------------------------------------------|
-------------------------------------------------|
-3-----8h10h8--8-8-8-8-8-8-8---------------------|
-3-----8h10h8--8-8-8-8-8-8-8---------------------|
-3-----8h10h8--8-8-8-8-8-8-8---------------------|
               * * * * * * *
-------------------------------------------------|
-------------------------------------------------|
-------------------------------------------------|
-3-----8h10h8--8-8-8-8-8-8-8---------------------|
-3-----8h10h8--8-8-8-8-8-8-8---------------------|
-3-----8h10h8--8-8-8-8-8-8-8---------------------|
               * * * * * * *
-------------------------------------------------|
-------------------------------------------------|
-------------------------------------------------|
-3-----8h10h8--8-8-8-8-8-8-8-8-8-8-8-8-8-8-8-8-8-|
-3-----8h10h8--8-8-8-8-8-8-8-8-8-8-8-8-8-8-8-8-8-|
-3-----8h10h8--8-8-8-8-8-8-8-8-8-8-8-8-8-8-8-8-8-|

outro, piano to guitar (2:35 to end.)
---10-------------------|
------8-----------------|
--------11--------------| about 52 times,
------------------------| fade out at last 2.
------------------------|
------------------------|

Outro
-------------------------------------------------|
-------------------------------------------------|
-------------------------------------------------|
-8-8/10-10/0-0/3-3/8-8/10-10-0/3-3/8-----------|
-8-8/10-10/0-0/3-3/8-8/10-10-0/3-3/8-----------|
-8-8/10-10/0-0/3-3/8-8/10-10-03-3/8-----------|

-------------------------------------------------|
-------------------------------------------------|
-------------------------------------------------|
8/10-10-0/3-3/8-8/10-10-0/3-3/8-8/10---------|
8/10-10-0/3-3/8-8/10-10-0/3-3/8-8/10---------|
8/10-10-0/3-3/8-8/10-10-0/3-3/8-8/10---------|

Outro (Continued)
-------------------|
-------------------|
-------------------|
-10~~~-----------|
-10~~~-----------|
-10~~~-----------|

Song Order
Verse x6
Pre-Chorus x5
Chorus x1
Verse x6
Pre-Chorus x5
Chorus x2
Bridge x1
Chorus x4
Outro x1

email me for corrections at [email protected]

and again please rate my tab, thanks. :)
haha I love this song thats why I tabbed it.
 
 
Used - Blue And Yellow Tab :: indexed at Ultimate Guitar.
Blue And Yellow tabs @ 911Tabs

About the artist behind Blue And Yellow Tab:

The Used is a rock band from Orem, Utah. Their sound has been classified under many genres and subgenres of rock. They signed with Reprise Records in late 2001 and rose to fame in June 2002 after releasing their debut self-titled album, The Used. They followed up with their second album, In Love and Death, in September 2004 and their third album, Lies for the Liars, in May 2007. An EP, Shallow Believer, was released in February 2008 that featured the band's B-sides. They are currently working on their fourth studio album, due out in late 2008. They have achieved a Gold or Platinum status in over 6 countries worldwide.[4]

Indexed at Wikipedia.

Show us your talent, perform Blue And Yellow Tab!

Here you can post a video or audio performance. Tell me more ...
Where can we find your performance? Tell me more ...
Your comment:
Please, log in to post your performance.