Artists by letter: A B C D E F G H I J K L M N O P Q R S T U V W X Y Z 0-9

 
Misguided Ghosts Tab
 I know there are other tabs for this song but no one has gotten the guitar
 part for "Guitar 2" right. I plan on tabbing the whole song(Both guitar
 parts), but for now I'm just posting the Intro,Verse, and Refrain. On other
 tabs my Guitar 1 part is labeled "Guitar 2" but i changed it to Guitar 1
 since it's harder to play than the other guitar part.....anyways I hope you
 guys enjoy my interpretation of "Misguided Ghosts"....I think it's dead on
 but I'm always open to constructive criticism

*Updated with Intro,Verse, and Refrain for Guitar 2. Will add Chorus tomorrow*

Intro(x2)

Guitar 1

e|---------------------------------------------------------------------|
B|---------------------------------------------------------------------|
G|----2-------2--------2--------2--------0--------0---------------0----|
D|0h2---2--0----0--0h2----2--0----0--0h2----2--0----0---------0h2---0--|
A|---------------------------------------------------------------------|
E|1--1---1-1-1---1-1--1----1-1-1---1-3--3----3-3-3---3-0-0--0-0--0---0-|

Guitar 2

e|---------------------------------------------------------------------------|
B|---------------------------------------------------------------------------|
G|---9---------12-----9---------12--------------------------------------7----|
D|10---10-10p9-----10---10-10p9-----9----9----9h10----9------9---9h10--------|
A|------------------------------------10---10------10---10-7---7------7---10-|
E|---------------------------------------------------------------------------|

Verse(x2)

Guitar 1

e|--------------------------------------------------------------------|
B|--------------------------------------------------------------------|
G|----2-------2--------2-------2--------0-------0----------------0----|
D|0h2---2--0----0--0h2---2--0----0--0h2---2--0----0----------0h2---0--|
A|--------------------------------------------------------------------|
E|1--1---1-1-1---1-1--1---1-1-1---1-3--3---3-3-3---3-0-0---0-0--0---0-|

Guitar 2

e|---------------------------------------------------------------------------|
B|---------------------------------------------------------------------------|
G|---9---------12-----9---------12--------------------------------------7----|
D|10---10-10p9-----10---10-10p9-----9----9----9h10----9------9---9h10--------|
A|------------------------------------10---10------10---10-7---7------7---10-|
E|---------------------------------------------------------------------------|

Refrain

Guitar 1

e|----------------------------------------------------------------3---------3-----|
B|----1---------1---------------1-------------1---------1-----------1---0-----0---|
G|------2---------2-------0---------0-----------2---------2-----------0---------0-|
D|--------2---------2-------2---------2-----------3-------------------------------|
A|0-0-------0-0-------3-3-----3-3-3-----3-3-3-------3-3-----0---------------------|
E|------------------------------------------------------------3-3-------3-3-------|

e|----0---------0---------0---------0-----------------------------3---------|
B|1-----1---1-----1---------3---------3-------1---------1-----------1---0---|
G|--------2---------2---------0---------0-2-----2---2-----2-----------0-----|
D|------------------------------------------------3-------------------------|
A|0-0-------0-0---------------------------3-3---------3-----0---------------|
E|--------------------0-0-------0-0---------------------------3-3-------3---|

Guitar 2

e|12-------12----12-------12----10-------10----10-------10----8-------8-----8-------8----10------|
B|------13-------------13-------------12-------------12-------------8-------------8------------12|
G|12-12-------12-12-12-------12-12-12-------12-12-12-------12-10-10------10-10-10-----10-12-12---|
D|-----------------------------------------------------------------------------------------------|
A|-----------------------------------------------------------------------------------------------|
E|-----------------------------------------------------------------------------------------------|

e|10----7-----7---12-------12----12-------12----10-------10----10-------10----8-----|
B|----------8-----------13-------------13-------------12-------------12-------------|
G|---12-7-7-----7-12-12-------12-12-12-------12-12-12-------12-12-12-------12-10-10-|
D|----------------------------------------------------------------------------------|
A|----------------------------------------------------------------------------------|
E|----------------------------------------------------------------------------------|

e|--8-----8-------8----10-------10----7-|
B|8-------------8------------12---------|
G|-----10-10-10-----10-12-12-------12-7-|
D|--------------------------------------|
A|--------------------------------------|
E|--------------------------------------|







Chorus

Guitar 1

e|----3-------------------------------------------------------------------|
B|5-3-3-5---5---------5---------5-----5-3-0-1-----------------------------|
G|5-4---5-----5---5-----5---5-----5---5-4-0-2---2---------2---------2-----|
D|------------------------------------------------2---2-----2---2-----2---|
A|----2-3-3-----3-3-3-----3-3-3-----3-------------------------------------|
E|5-3---------------------------------5-3-0-1-1-----1-1-1-----1-1-1-----1-|

e|----3-----------------------------------------------------------------------|
B|5-3-3-5---5---------5---------5-----5-3-0-----------------------------------|
G|5-4---5-----5---5-----5---5-----5---5-4-0-----2-------2--------2-------2----|
D|------------------------------------------0h2---2--0----0--0h2---2--0----0--|
A|----2-3-3-----3-3-3-----3-3-3-----3-----------------------------------------|
E|5-3---------------------------------5-3-0-1--1---1-1-1---1-1--1---1-1-1---1-|

e|----------------------------------|
B|----------------------------------|
G|----0-------0----------------0----|
D|0h2---2--0----0----------0h2---2--|
A|----------------------------------|
E|3--3---3-3-3---3-0-0---0-0--0---0-|

Verse(x2)
Refrain

Final Chorus

Guitar 1

e|----3-------------------------------------------------------------------|
B|5-3-3-5---5---------5---------5-----5-3-0-1-----------------------------|
G|5-4---5-----5---5-----5---5-----5---5-4-0-2---2---------2---------2-----|
D|------------------------------------------------2---2-----2---2-----2---|
A|----2-3-3-----3-3-3-----3-3-3-----3-------------------------------------|
E|5-3---------------------------------5-3-0-1-1-----1-1-1-----1-1-1-----1-|

Repeat this part 3x then on the last time play this

e|----3-----------------------------------------|
B|5-3-3-5---5---------5--------5------5-3-3-5-6-|
G|5-4---5-----5---5h7-------5----5----5-4-0-5-7-|
D|----------------------5-----------------------|
A|----2-3-3-----3-3--3----3-3-3-----3-----2-3-5-|
E|5-3---------------------------------5-3-------|

Then play the Intro(x2) and end the song on this note

e|3-|
B|--|
G|2-|
D|--|
A|--|
E|1-|

Any feedback would be very much appreciated.
 
 
Paramore - Misguided Ghosts Tab :: indexed at Ultimate Guitar.
Misguided Ghosts tabs @ 911Tabs

About the artist behind Misguided Ghosts Tab:

Paramore (IPA: /'pærəmɔər/) is an American rock band that formed in Franklin, Tennessee in 2004 consisting of Hayley Williams (lead vocals/keyboard), Josh Farro (lead guitar/backing vocals), Jeremy Davis (bass guitar), and Zac Farro (drums). The group released their debut album All We Know Is Falling in 2005, and their second album Riot! in 2007, which was certified gold in the US and the UK.

Indexed at Wikipedia.

Show us your talent, perform Misguided Ghosts Tab!

Here you can post a video or audio performance. Tell me more ...
Where can we find your performance? Tell me more ...
Your comment:
Please, log in to post your performance.