Artists by letter: A B C D E F G H I J K L M N O P Q R S T U V W X Y Z 0-9

 
Coven Of Darkness Tab
-----------------------------------------------------------------------------
                 Coven of Darkness, Temples of Sin - Nocturnal
-----------------------------------------------------------------------------

Band:  Nocturnal
    Album: Arrival of the Carnivore
    Song:  Coven of Darkness, Temples of Sin
    Copyright (c) Deathstrike Records
    Version 1.0 - 10/01/2012
    Transcribed By: ulfskeptr
    Email: [email protected]

http://www.myspace.com/nocturnalthrash

.  - palm mute           ,  - slight palm mute    
  - slide down to       /  - slide up to
~  - vibrato             b  - bend
h  - hammer on           p  - pull off                  
[] - second time         *  - see comment
t  - tap                 ph - pinched harmonic
x  - staccato            () - ghost note, sustained note
"  - tremolo note         - trill

Suffixes for bend
f  - full bend    h - half bend
q  - quarter bend t - tap bend
^  - hold bend    r - release bend
~  - vibrato bend

Tuning: Tune down Half-Step

------------------
Coven of Darkness:
------------------

Intro - 6x
eb|----------------|
Bb|----------------|
Gb|--------9--8-8--|
Db|--2--3--9--8-8--|
Ab|--2--3--7--6-6--|
Eb|--0--1----------|

Opening Riff 1
eb|---------------------|
Bb|---------------------|
Gb|---------------------|
Db|--.-.---7-6-.-.------|
Ab|--6-7-------7-6--9--|
Eb|---------------------|

Riff 1                            Fig.1 - 3x          Fig.2 - 1x 
eb|-------------------------------|-------------------|--------------------|
Bb|-------------------------------|-------------------|--------------------|
Gb|-----------------9--8-8--------|-------------------|--------------------|
Db|-2---------3-----9--8-8-......-|--.-.-7-6-.-.------|--------------------|
Ab|-2-......--3-..--7--6-6-666666-|--6-7-----6-7--9--|----6h7p6h7p6h7p6h7-|
Eb|-0-000000--1-11----------------|-------------------|--------------------|

- then play ending on Fig.1 - 4x

Riff 2 - 2x
eb|-------------------------------------------------------------------------
Bb|-------------------------------------------------------------------------
Gb|--9-------128---9-----------------9-------128---9----------------------
Db|--9-.....-128---9-.....--10-9-7---9-.....-128---9-.....--10-9-7--------
Ab|--7-77777-106---7-77777--8--7-5---7-77777-106---7-77777--8--7-5--------
Eb|-------------------------------------------------------------------------

--------------------------------------------------------------------|
--------------------------------------------------------------------|
-----5-------84----5-----------------5-------84---5---------------|
-----5-.....-84----5-.....--6-5-6----5-.....-84---5-.....--6-5-10-|
-----3-33333-62----3-33333--4-3-4----3-33333-62---3-33333--4-3-8--|
--------------------------------------------------------------------|

End
eb|---------------------|
Bb|---------------------|
Gb|---------------------|
Db|--9-----------------|
Ab|--7-----------------|
Eb|---------------------|

---------------
Temples of Sin:
---------------

Riff 1
eb|--------------------------------------------------------------------------
Bb|--------------------------------------------------------------------------
Gb|--9-------128---9-----------------9-------128---9-----------------------
Db|--9-.....-128---9-.....--10-9-7---9-.....-128---9-.....--10-9-7---------
Ab|--7-77777-106---7-77777--8--7-5---7-77777-106---7-77777--8--7-5---------
Eb|--------------------------------------------------------------------------

----------------------------------------------------------------------------|
----------------------------------------------------------------------------|
-----5-------84---5-----------------5-------84----5-----------------------|
-----5-.....-84---5-.....--6-5-6----5-.....-84----5-.....--6-5-10---------|
-----3-33333-62---3-33333--4-3-4----3-33333-62----3-33333--4-3-8----------|
----------------------------------------------------------------------------|

Riff 2
eb|-------------------------------------------------------------------------|
Bb|-------------------------------------------------------------------------|
Gb|-------------------------------------------------------------------------|
Db|--...-2-.....-1-.....---...-----3-------...-----8-7----7-6---------------|
Ab|--000---00000---00000-1-000--1-----1--0-000--/8------8------7-6-5-3------|
Eb|-------------------------------------------------------------------------|

Riff 3
eb|-------------------------------------------------------------------------|
Bb|-------------------------------------------------------------------------|
Gb|-------------------------------------------------------------------------|
Db|--9-...-9-...-9-...--9--5--8-...-8-..--10--10101010--9-7-----------------|
Ab|--7-777-7-777-7-777--7--3--6-666-6-66--8---8-8-8-8---7-5-----------------|
Eb|-------------------------------------------------------------------------|

Bridge - play this twice
eb|--------------------------------------------------------------------------
Bb|--------------------------------------------------------------------------
Gb|--------------------------------------------------------------------------
Db|---2-.....-54--2-.....-54--2-.....-54--2-.--54--2-.--54--------------
Ab|---0-00000-32--0-00000-32--0-00000-32--0-0--32--0-0--32--------------
Eb|--------------------------------------------------------------------------

1.               2.
----------------------------------------------|----------------|------------|
----------------------------------------------|----------------|------------|
----------------------------------------------|----------------|------------|
--4-.....-54--4-.....-54--4-.....-54--4-.--|--54--4-.--54-|-----3-2----|
--2-22222-32--2-22222-32--2-22222-32--2-2--|--32--2-2--32-|-3-2-----3-2|
----------------------------------------------|----------------|------------|

End
eb|-----|
Bb|-----|
Gb|-----|
Db|--2--|
Ab|--0--|
Eb|-----|



Structure:

Riff 1 - 2x
Riff 2 - 4x
Riff 1 - 2x
Riff 3 - 4x
Riff 2 - 4x
Riff 1 - 2x
Riff 3 - 4x
Bridge - 2x
Riff 1 - 2x
Riff 3 - 4x
Riff 2 - 4x
End...

 
 
Nocturnal - Coven Of Darkness Tab :: indexed at Ultimate Guitar.
Coven Of Darkness tabs @ 911Tabs
People who played Nocturnal - Coven Of Darkness Tab also played these songs by Nocturnal:
Nuclear Strike Tab, War Of Spirits Tab, Preventive War Tab, Awakening The Curse Of Souls Tab, Victorious Night Tab, Merciless Murder Tab

Quick tip, so you can enjoy Coven Of Darkness Tab even more:

After the registration (which takes just 10 seconds, remember?) you will be able to use your profile - your very own piece of YourChords.com.

Show us your talent, perform Coven Of Darkness Tab!

Here you can post a video or audio performance. Tell me more ...
Where can we find your performance? Tell me more ...
Your comment:
Please, log in to post your performance.