Artists by letter: A B C D E F G H I J K L M N O P Q R S T U V W X Y Z 0-9

 
Rocket Queen Chords
============================================================
               Rocket Queen - Guns N' Roses
============================================================
*Album: Apetite For Destruction (1986)
*Tuning/Afinaci0n: EADGBe (Standard)
*4/4.
*Tuning: Half Step Down (Eb Ab Db Gb Bb Eb) / Un semitono para abajo
*Por Sebastian Arashiro ([email protected])

-INTRO: Repeat F# chords / Repetir Acorde de F#
*Or play this arrengment on the rhythm guitar: / O tocar éste arreglo en la guitarra ritmica:

F#m7                E/F#                F#5                          E/F#        
eb/------------------|-------------------|-------------------|--------------------|
Bb/-2----------------|--0----------------|-------------------|-----------0--------|
Gb/-2----------------|--1----------------|-------------------|-----------1--------|
Db/-2----------------|--2----------------|--4----------------|--L--------2--------|
Ab/------------------|-------------------|--4----------------|--L-----------------|
Eb/-2----------------|--2----------------|--2----------------|--L--------2--------|



-VERSES:

If I 
F# 
Say I don't need anyone
    E
And  say these things to you 'just
E
 I can turn on anyone
     F#
Just like I've turned on you I've got a

B
 Tongue like a Razor.
  B
A sweetwitch blade knife
    C#7
And I can do you favors 
                C#7
But then you'll do whatever I like!

-Chorus:
       F#  
Here I am. 
                    E
And you're a Rocket Queen. 
        A
I might be a little young 
    B             F#
But honey I ain't naive.

F#  
Here I am 
                    E
And you're a Rocket Queen, oh yeah.
        A
I might be a little young 
    B             F#
But honey I ain't naive.

-BREAK: F#   E

-Interlude: F#  [repeat]

-VERSES:
          F#
I've seen everything imaginable 
E 
 Pass before these eyes 
          E
 I've had everything that's tangible 
F#
Honey you'd be surprised 
      A
I'm a sexual innuendo 
        A
In this burned out paradise
       C#7
If you turn me on to anything 
           C#7
You better turn me on tonight

-Chorus:
       F#  
Here I am .
                    E
And I'm your Rocket Queen 
        A
I might be a little young 
    B             F#
But honey I ain't naive.

F#  
Here I am 
                    E
And you're a Rocket Queen, oh yeah.
        A
I might be a little young 
    B             F#
But honey I ain't naive.

-SOLO CHORDS: | F#  |  E  |  E  |  F#  :|| Repeat / Repetir

-Modulation Part of the harmony in the Solo/Primera Parte de Modulaci0n de la armonia en el solo: 
| A | A | B | B |

-Second Modulation/Segunda modulaci0n del solo:
| C# | C# | C# | C# |



-Chorus:
       F#  
Here I am 
                    E
And you're a Rocket Queen 
        A
I might be a little young 
    B             F#
But honey I ain't naive.

F#  
Here I am 
                    E
And you're a Rocket Queen, oh yeah.
        A
I might be a little young 
    B             F#
But honey I ain't naive.

-Break: F#5 | F#5 ||

-Final Chords/Acordes Finales:

| E B | C# m | E A |  B :||  [Repeat] This chord sequence is used until the song 
ends, actually / Ésta secuencia de acordes se usa hasta que la canci0n termina, en 
realidad.



-Riff outtro (just in case) / Riff ultimo (por si las dudas):
  
eb/------------0-----------0--------|-----0--------0-----------|
Bb/---------------9-----------7-----|--------5--------5-----0--|
Gb/---------9--------9--8--------6--|--L--------6--------6-----|
Db/---------------------------------|--------------------------|
Ab/---------------------------------|--------------------------|
Eb/---------------------------------|--------------------------|

|-----0-----------0--------|-----0--------0--0--------|
|--------9-----------7-----|--------7--------------7--|
|--9--------9--8--------8--|--L--------8--------8-----|
|--------------------------|--------------------------|
|--------------------------|--------------------------|
|--------------------------|--------------------------|

*All notes are eights / Todas las notas son corcheas.

-----0-----------0--------|--------0--------0--------|
--------9-----------7-----|-----5--------------0-----|
--9--------9--8--------6--|--L--------6--4--------6--|
--------------------------|--------------------------|
--------------------------|--------------------------|
--------------------------|--------------------------|

|-----0-----------0--------|-----0--------0--0--------||
|--------9-----------7-----|-----------4--------4-----||
|--9--------9--8--------4--|--L-----4--------------4-:|| [REPEAT]
|--------------------------|--------------------------||
|--------------------------|--------------------------||
|--------------------------|--------------------------||

E  B         C#m    B
 I see you standing 
E         A        B       
 Standing on your own 
E     B       C#m   B         E
 It's such a lonely place for you       
    F#     B
For you to be

E    B          C#m    B
 If you need a shoulder
E      A           B
 Or if you need a friend 
E     B         C#m
 I'll be here standing 
             E     F#
Until the bitter  end



E        B         C#m
 NO one needs the sorrow!
E      A          B 
 No one needs the pain!

E   B       C#m
 I hate to see you, 
         E          
Walking out there,
A         B 
Out in the rain.

E    B        C#m     B
 So don't chastise me!
E    A         B
 Or think I, I mean you harm! 
E   B          C#m
 Of those that take you 
              E          A 
 Leave you strung out
B
Much too far 
Baby-yeah

-FINAL SOLO CHORDS (Repeat until song is over) / Acordes de ultimo solo, se 
repiten hasta que termina la canci0n.
| E B | C#m | E A |  B  :||  [Repeat]

''Don't ever leave me 
Say you'll always be there
All I ever wanted 
Was for you 
To / know / that / I / care...''





===========================================
Legend/Leyenda:

h : hammer
p : pull-off
g : palm muted
| : bar / barra de compas
|| : double bar / doble barra (finalizaci0n de parte de una obra)
:|| : repetition / repetici0n 

 
 
Guns N Roses - Rocket Queen Chords :: indexed at Ultimate Guitar.
Rocket Queen tabs @ 911Tabs

Quick tip, so you can enjoy Rocket Queen Chords even more:

If you don't really know how to deal with "Absus4" chord and his equally confusing brothers, just put the mouse cursor over them and you will be shown a helpful chord diagram.

Show us your talent, perform Rocket Queen Chords!

Here you can post a video or audio performance. Tell me more ...
Where can we find your performance? Tell me more ...
Your comment:
Please, log in to post your performance.