Artists by letter: A B C D E F G H I J K L M N O P Q R S T U V W X Y Z 0-9

At Least She Looks Beautiful Tab - Caleb Blood


 
At Least She Looks Beautiful Tab
-----------------------------------------------------------------------------
              At Least She Looks Beautiful - Caleb Blood
                      http://www.calebblood.com/
-----------------------------------------------------------------------------
Tabbed by: Jones Colver
E-mail: [email protected]

Tuning: Standard

This is my first time writing the tabs for a song, so I know parts are wrong. 
Feel free to do whatever to make this better.

(Verse 1)

G              C           Am             D
e|-----------------------------------------------------------|
B|-----------0-----------1--1-----------1-----------3--3-----|
G|-----------0--0--------0--0-----------2--2--------2--2-----|
D|--------0--------------------------2----------0------------|
A|------------------3-----------0----------------------------|
E|---3-------------------------------------------------------|

Her bold red smile Matches     Her low-cut red Dress

G              C           Am             D
e|-----------------------------------------------------------|
B|-----------0-----------1--1-----------1-----------3--3-----|
G|-----------0--0--------0--0-----------2--2--------2--2-----|
D|--------0--------------------------2---------0-------------|
A|------------------3-----------0----------------------------|
E|---3-------------------------------------------------------|

Both           Manufactured By hollywood's Best

G              C           Am             D
e|-----------------------------------------------------------|
B|-----------0-----------1--1-----------1-----------3--3-----|
G|-----------0--0--------0--0-----------2--2--------2--2-----|
D|--------0--------------------------2---------0-------------|
A|------------------3-----------0----------------------------|
E|---3-------------------------------------------------------|

if This is what she Wished for then Why can't it Be
                       
     G              C           Am             D
e|-----------------------------------------------------------|
B|-----------0-----------1--1-----------1-----------3--3-----|
G|-----------0--0--------0--0-----------2--2--------2--2-----|
D|--------0--------------------------2---------0-------------|
A|------------------3-----------0----------------------------|
E|---3-------------------------------------------------------|

The perfect fulFillment of a Red carpet   Dream

G              C           Am             D
e|-----------------------------------------------------------|
B|-----------0-----------1--1-----------1-----------3--------|
G|-----------0--0--------0--0-----------2--2--------2--------|
D|--------0--------------------------2---------0-------------|
A|------------------3-----------0----------------------------|
E|---3-------------------------------------------------------|

and she Knows she should be Happy-                              But at least
                                                                 she looks-

G              C           Am             D
e|-----------------------------------------------------------|
B|-----------0-----------1--1-----------1-----------3--3-----|
G|-----------0--0--------0--0-----------2--2--------2--2-----|
D|--------0--------------------------2---------0-------------|
A|------------------3-----------0----------------------------|
E|---3-------------------------------------------------------|

Beautiful

G              C           Am             D
e|-----------------------------------------------------------|
B|-----------0-----------1--1-----------1-----------3--3-----|
G|-----------0--0--------0--0-----------2--2--------2--2-----|
D|--------0--------------------------2---------0-------------|
A|------------------3-----------0----------------------------|
E|---3-------------------------------------------------------|



(Verse 2)

G              C           Am             D
e|-----------------------------------------------------------|
B|-----------0-----------1--1-----------1-----------3--3-----|
G|-----------0--0--------0--0-----------2--2--------2--2-----|
D|--------0--------------------------2----------0------------|
A|------------------3-----------0----------------------------|
E|---3-------------------------------------------------------|

he Stares across the Street where he Made his first Friend   where he

G              C           Am             D
e|-----------------------------------------------------------|
B|-----------0-----------1--1-----------1-----------3--3-----|
G|-----------0--0--------0--0-----------2--2--------2--2-----|
D|--------0--------------------------2---------0-------------|
A|------------------3-----------0----------------------------|
E|---3-------------------------------------------------------|

First loved a  Girl from beGinning to     End

G              C           Am             D
e|-----------------------------------------------------------|
B|-----------0-----------1--1-----------1-----------3--3-----|
G|-----------0--0--------0--0-----------2--2--------2--2-----|
D|--------0--------------------------2---------0-------------|
A|------------------3-----------0----------------------------|
E|---3-------------------------------------------------------|

a   House made of  Memories now Left with no  More
                       
     G              C           Am             D
e|-----------------------------------------------------------|
B|-----------0-----------1--1-----------1-----------3--3-----|
G|-----------0--0--------0--0-----------2--2--------2--2-----|
D|--------0--------------------------2---------0-------------|
A|------------------3-----------0----------------------------|
E|---3-------------------------------------------------------|

Now missing a  Girl that he Loved once    Before      now he only

G              C           Am             D
e|-----------------------------------------------------------|
B|-----------0-----------1--1-----------1-----------3--------|
G|-----------0--0--------0--0-----------2--2--------2--------|
D|--------0--------------------------2---------0-------------|
A|------------------3-----------0----------------------------|
E|---3-------------------------------------------------------|

Sees her on the Big screen                                 But at least
                                                                 she looks

G              C           
e|------------------------------|
B|-----------0-----------1--1---|
G|-----------0--0--------0--0---|
D|--------0---------------------|
A|------------------3-----------|
E|---3--------------------------|

Beautiful

(Bridge 1)

Am                      C             
e|-----------------------------------------------------------------------|
B|---------1---------------------1---------------1-----------------------|
G|---------2--2------------------0--0------------0--0--------------------|
D|------2---------2-----------2--------2------2--------2-----------------|
A|-0-----------------0--2--3---------------3-----------------------------|
E|-----------------------------------------------------------------------|

Love                           Lost               will it

Am                      C
e|-----------------------------------------------------------------------|
B|---------1---------------------3---------------3-----------------------|
G|---------2--2---------------2--2--2---------2--2--2--------------------|
D|------2---------2--------0-----------0---0-----------------------------|
A|-0-----------------0--2------------------------------------------------|
E|-----------------------------------------------------------------------|

Ever               Be Re-Placed?

Am                      C         
e|-----------------------------------------------------------------------|
B|---------1---------------------1---------------1-----------------------|
G|---------2--2------------------0--0------------0--0--------------------|
D|------2---------2-----------2--------2------2--------2-----------------|
A|-0-----------------0--2--3---------------3-----------------------------|
E|-----------------------------------------------------------------------|

Love                           lost                was it

Am                      C               Am             C
e|------------------------------------------------------------------------|
B|---------1---------------------3---------------1-----------3------------|
G|---------2--2---------------2--2--2------------2--2--------2------------|
D|------2---------2--------0-----------0------2--------2--0---------------|
A|-0-----------------0--2------------------0------------------------------|
E|------------------------------------------------------------------------|

Always             such a   waste?

(Verse 3)

G              C           Am             D
e|-----------------------------------------------------------|
B|-----------0-----------1--1-----------1-----------3--3-----|
G|-----------0--0--------0--0-----------2--2--------2--2-----|
D|--------0--------------------------2----------0------------|
A|------------------3-----------0----------------------------|
E|---3-------------------------------------------------------|

she Stares through the Cameras with a Crayola Smile

G              C           Am             D
e|-----------------------------------------------------------|
B|-----------0-----------1--1-----------1-----------3--3-----|
G|-----------0--0--------0--0-----------2--2--------2--2-----|
D|--------0--------------------------2---------0-------------|
A|------------------3-----------0----------------------------|
E|---3-------------------------------------------------------|

Thinkin' of a Boy that she's Missed for a While

G              C           Am             D
e|-----------------------------------------------------------|
B|-----------0-----------1--1-----------1-----------3--3-----|
G|-----------0--0--------0--0-----------2--2--------2--2-----|
D|--------0--------------------------2---------0-------------|
A|------------------3-----------0----------------------------|
E|---3-------------------------------------------------------|

he Probably doesn't Miss her, he's Probably moved On
                       
     G              C           Am             D
e|-----------------------------------------------------------|
B|-----------0-----------1--1-----------1-----------3--3-----|
G|-----------0--0--------0--0-----------2--2--------2--2-----|
D|--------0--------------------------2---------0-------------|
A|------------------3-----------0----------------------------|
E|---3-------------------------------------------------------|

to a Waiting list of Girls that's been Growing so Long

G              C           Am             D
e|-----------------------------------------------------------|
B|-----------0-----------1--1-----------1-----------3--------|
G|-----------0--0--------0--0-----------2--2--------2--------|
D|--------0--------------------------2---------0-------------|
A|------------------3-----------0----------------------------|
E|---3-------------------------------------------------------|

and she Wishes she were With him                               But at least
                                                                 she looks

G              C           
e|------------------------------|
B|-----------0-----------1--1---|
G|-----------0--0--------0--0---|
D|--------0---------------------|
A|------------------3-----------|
E|---3--------------------------|

Beautiful

(Bridge 2)

Am                      C             
e|-----------------------------------------------------------------------|
B|---------1---------------------1---------------1-----------------------|
G|---------2--2------------------0--0------------0--0--------------------|
D|------2---------2-----------2--------2------2--------2-----------------|
A|-0-----------------0--2--3---------------3-----------------------------|
E|-----------------------------------------------------------------------|

Broken                          Dreams               will they

Am                      C
e|-----------------------------------------------------------------------|
B|---------1---------------------3---------------3-----------------------|
G|---------2--2---------------2--2--2---------2--2--2--------------------|
D|------2---------2--------0-----------0---0-----------------------------|
A|-0-----------------0--2------------------------------------------------|
E|-----------------------------------------------------------------------|

Ever               Be Re-Paired?

Am                      C         
e|-----------------------------------------------------------------------|
B|---------1---------------------1---------------1-----------------------|
G|---------2--2------------------0--0------------0--0--------------------|
D|------2---------2-----------2--------2------2--------2-----------------|
A|-0-----------------0--2--3---------------3-----------------------------|
E|-----------------------------------------------------------------------|

Broken                         Hearts                do they

Am                      C               Am             C
e|------------------------------------------------------------------------|
B|---------1---------------------3---------------1-----------3------------|
G|---------2--2---------------2--2--2------------2--2--------2------------|
D|------2---------2--------0-----------0------2--------2--0---------------|
A|-0-----------------0--2------------------0------------------------------|
E|------------------------------------------------------------------------|

Always             Break in pairs?

(Verse 4)

G              C           Am             D
e|-----------------------------------------------------------|
B|-----------0-----------1--1-----------1-----------3--3-----|
G|-----------0--0--------0--0-----------2--2--------2--2-----|
D|--------0--------------------------2----------0------------|
A|------------------3-----------0----------------------------|
E|---3-------------------------------------------------------|

he Wakes to the  Doorbell that Breaks him from his Dreams

G              C           Am             D
e|-----------------------------------------------------------|
B|-----------0-----------1--1-----------1-----------3--3-----|
G|-----------0--0--------0--0-----------2--2--------2--2-----|
D|--------0--------------------------2---------0-------------|
A|------------------3-----------0----------------------------|
E|---3-------------------------------------------------------|

At this        Hour        Who could it   Be?

G              C           Am             D
e|-----------------------------------------------------------|
B|-----------0-----------1--1-----------1-----------3--3-----|
G|-----------0--0--------0--0-----------2--2--------2--2-----|
D|--------0--------------------------2---------0-------------|
A|------------------3-----------0----------------------------|
E|---3-------------------------------------------------------|

he Opens the      Door,       Speechless at  First
                       
     G              C           Am             D
e|-----------------------------------------------------------|
B|-----------0-----------1--1-----------1-----------3--3-----|
G|-----------0--0--------0--0-----------2--2--------2--2-----|
D|--------0--------------------------2---------0-------------|
A|------------------3-----------0----------------------------|
E|---3-------------------------------------------------------|

and he Says, "where've you Been, my Beautiful  Girl?"

G              C           Am             D
e|-----------------------------------------------------------|
B|-----------0-----------1--1-----------1-----------3--------|
G|-----------0--0--------0--0-----------2--2--------2--------|
D|--------0--------------------------2---------0-------------|  x3
A|------------------3-----------0----------------------------|
E|---3-------------------------------------------------------|

no Make-up to     Hide your   Smile

You've Never
                                                                  Looked So
    
     G              C           Am             D
e|-----------------------------------------------------------|
B|-----------0-----------1--1-----------1-----------3--3-----|
G|-----------0--0--------0--0-----------2--2--------2--2-----|
D|--------0--------------------------2---------0-------------|
A|------------------3-----------0----------------------------|
E|---3-------------------------------------------------------|

Beautiful

G              C           Am             D
e|-----------------------------------------------------------3----|
B|-----------0-----------1--1-----------1-----------3--3-----0----|
G|-----------0--0--------0--0-----------2--2--------2--2-----0----|
D|--------0--------------------------2---------0-------------0----|
A|------------------3-----------0----------------------------2----|
E|---3-------------------------------------------------------3----|
 
 
Caleb Blood - At Least She Looks Beautiful Tab :: indexed at Ultimate Guitar.
At Least She Looks Beautiful tabs @ 911Tabs
People who played Caleb Blood - At Least She Looks Beautiful Tab also played these songs by Caleb Blood:
At Least She Looks Beautiful

Quick tip, so you can enjoy At Least She Looks Beautiful Tab even more:

You might want to transpose the song if it is too high or too low for you to sing. Just click the desired option while playing a song and all the chords will automatically be transponded into a new key.

Show us your talent, perform At Least She Looks Beautiful Tab!

Here you can post a video or audio performance. Tell me more ...
Where can we find your performance? Tell me more ...
Your comment:
Please, log in to post your performance.