Artists by letter: A B C D E F G H I J K L M N O P Q R S T U V W X Y Z 0-9

 
Thrill Me Tab
-----------------------------------------------------------------------------
              Thrill Me - Washya
-----------------------------------------------------------------------------
Tuning: Drop D (EBGDAD)
Intro (Heavy Palm mute)
E|------------------------------------------------------------|
B|------------------------------------------------------------|
G|------------------------------------------------------------|
D|--------------------------------7777-----------4444-444-----|
A|-00000000000-000-00-0000-00-000-5555-5555-2222-2222-222-1-3-|
D|-00000000000-000-00-0000-00-000------5555-2222----------1-3-|
PM *********** *** ** **** ** ***

Verses (Heavy Palm Mute)
E|------------------------------|
B|------------------------------|
G|------------------------------|
D|------------------------------|
A|-0-5-3-0-3-5-3-0-0-3-0-66655-|
D|-0-5-3-0-3-5-3-0-0-3-0-66655-|
PM * * * * * * * * * * *

Chorus
E|-------------------------------------------------------------------|
B|-------------------------------------------------------------------|
G|-------------------------------------------------------------------|
D|-------------------------------------------7777777-----------------|
A|------5555555555555/666666666622222222222-5555555-3333333-1111111-|
D|-//xx-5555555555555/666666666622222222222---------3333333-1111111-|
(Pickslide)

Solo
E|------------------------------------------------------9-10p8p7h10p8p7h10~-|
B|-------------------------------8-7---8-7---8-7-10-8-7---------------------|
G|---------------------9-7---7-9-----9-----9--------------------------------|
D|-----7---9-7---8-7-8-----9------------------------------------------------|
A|-7-9---9-----9------------------------------------------------------------|
D|--------------------------------------------------------------------------|

Verses (Heavy Palm Mute)
E|------------------------------|
B|------------------------------|
G|------------------------------|
D|------------------------------|
A|-0-5-3-0-3-5-3-0-0-3-0-66655-|
D|-0-5-3-0-3-5-3-0-0-3-0-66655-|
PM * * * * * * * * * * *

Chorus
E|-------------------------------------------------------------------|
B|-------------------------------------------------------------------|
G|-------------------------------------------------------------------|
D|-------------------------------------------7777777-----------------|
A|------5555555555555/666666666622222222222-5555555-3333333-1111111-|
D|-//xx-5555555555555/666666666622222222222---------3333333-1111111-|
(Pickslide)
 
 
Washya - Thrill Me Tab :: indexed at Ultimate Guitar.
Thrill Me tabs @ 911Tabs

Quick tip, so you can enjoy Thrill Me Tab even more:

Try out the AutoScroller option ... It scrolls the page for you, so you can totally focus on nailing that solo. You can choose among different speeds using your mouse or your keyboard (keys 0, 1, 2 and 3).

Show us your talent, perform Thrill Me Tab!

Here you can post a video or audio performance. Tell me more ...
Where can we find your performance? Tell me more ...
Your comment:
Please, log in to post your performance.