Artists by letter: A B C D E F G H I J K L M N O P Q R S T U V W X Y Z 0-9

 
Michelle Tab
-------------------------------------------------------------------------------
                             Michelle - Lynyrd Skynyrd
-------------------------------------------------------------------------------
Tabbed by: Dylan (Allen1977)

Tuning: Standard EADGBe

I saw that there were no tabs to this rocking song, so I knew that I had to put my 
interpretation up on here.

| h   hammer-on
| p   pull-off
| v   vibrato
| b   Bend
| br  Bend release
| r   Release Bend
| H   Hold Bend

Main Riff: Repeat this through the verses.
   A             G             F#            F
e|---------------------------------------------------------------------------|
B|---------------------------------------------------------------------------|
G|----2-----2-------2-----2-------2-----2-------2----------------------------|
D|---------------------------------------------------------------------------|
A|-0------0---0-----------------------------------0-0-2-3--------------------|
E|---------------3------3---3--2------2---2--1-------------------------------|

Rhythm Guitar behind Solo 1: Repeat this through the first solo
   A         G          A         B
e|-5-5--5-5--3--3--3-3--5-5--5-5--7--7--7-7----------------------------------|
B|-5-5--5-5--3--3--3-3--5-5--5-5--7--7--7-7----------------------------------|
G|-6-6--6-6--4--4--4-4--6-6--6-6--8--8--8-8----------------------------------|
D|-7-7--7-7--5--5--5-5--7-7--7-7--9--9--9-9----------------------------------|
A|-7-7--7-7--5--5--5-5--7-7--7-7--9--9--9-9----------------------------------|
E|-5-5--5-5--3--3--3-3--5-5--5-5--7--7--7-7----------------------------------|

Solo 1

e|---------------------------------------------------------------------------|
B|----------------------------------5--8b-8b--8-5--8b-8H--8-5--8b-8H--8-5--8b|
G|-7b-7b--7-5--7b-5-------------5h7------------------------------------------|
D|-------------------7p5-7--5h7----------------------------------------------|
A|---------------------------------------------------------------------------|
E|---------------------------------------------------------------------------|

e|---------------------------------------------------------------------------|
B|-8H--8-5--8b-8H--8-5--8b-8H--8-5--8b-8H--8-5--8b-8H--8-5--8b-8H--8-5--10b--|
G|---------------------------------------------------------------------------|
D|---------------------------------------------------------------------------|
A|---------------------------------------------------------------------------|
E|---------------------------------------------------------------------------|
                                                                 I'm pretty sure
e|-------------------------8---------8--10b--10H--10H--10H--10r--10-8-10b-10-|
B|10H-10H--10bv---10brp8-----10---10-----------------------------------------|
G|-----------------------9---------------------------------------------------|
D|---------------------------------------------------------------------------|
A|---------------------------------------------------------------------------|
E|---------------------------------------------------------------------------|
this little lick is wrong. I'm still figuring it out.    I know this is a big jump,  
e|8h10-----10-8-10b-10-8h10-----10-8-10b-10-8h10-----10----------------------|
B|-----10-------------------10-------------------10------17b-17b-17b-17b-17bv|
G|---------------------------------------------------------------------------|
D|---------------------------------------------------------------------------|
A|---------------------------------------------------------------------------|
E|---------------------------------------------------------------------------|
but it makes the ending of the solo easier to play.
e|---------------------------------------------------------------------------|
B|17v--17-15-----------------------------------------------------------------|
G|-----------16-16b-14-16-14-14--17p14----17p14----17p14----17p14----17p14---|
D|-------------------------------------14-------14-------14-------14-------14|
A|---------------------------------------------------------------------------|
E|---------------------------------------------------------------------------|

e|---------------------------------------------------------------------------|
B|---------------------------------------------------------------------------|
G|-17p14----17p14------------------------------------------------------------|
D|-------14------------------------------------------------------------------|
A|---------------------------------------------------------------------------|
E|---------------------------------------------------------------------------|

I think the little rundown before the second solo goes like this.

e|---------------5-----------------------------------------------------------|
B|---------5-7-8-------------------------------------------------------------|
G|-----5-7-------------------------------------------------------------------|
D|-5-7-----------------------------------------------------------------------|
A|---------------------------------------------------------------------------|
E|---------------------------------------------------------------------------|

Rhythm Guitar Behind Solo 2: Repeat this through the second solo.
   A          G         F#         F
e|---------------------------------------------------------------------------|
B|---------------------------------------------------------------------------|
G|-2-2---2--2----------------------------------------------------------------|
D|-2-2---2--2-5--5--5-5-4-4---4--4-3--3--------------------------------------|
A|-0-0---0--0-5--5--5-5-4-4---4--4-3--3--0-0-2-3-----------------------------|
E|------------3--3--3-3-2-2---2--2-1--1--------------------------------------|

I don't know the second solo yet. Maybe I'll learn it one of these days.
 
 
Lynyrd Skynyrd - Michelle Tab :: indexed at Ultimate Guitar.
Michelle tabs @ 911Tabs

About the artist behind Michelle Tab:

Lynyrd Skynyrd (pronounced /ˌlɛnɚdˈskɪnɝd/,Leh-Nerd Skin-Nerd) is an American Southern rock band. The band became prominent in the Southern United States in 1973, and rose to worldwide recognition before several members, including lead vocalist and primary songwriter Ronnie Van Zant, were killed in a plane crash in 1977 near McComb, Mississippi. A tribute band was formed in 1987 for a reunion tour with Johnny Van Zant, Ronnie's younger brother, at the helm, and continues to record music today.

The band was inducted into the Rock and Roll Hall of Fame on March 13, 2006, with members Gary Rossington and Billy Powell, former members Ed King, Bob Burns, and Artimus Pyle, and deceased members Ronnie Van Zant, Allen Collins, Steve Gaines, and Leon Wilkeson.

Indexed at Wikipedia.

Show us your talent, perform Michelle Tab!

Here you can post a video or audio performance. Tell me more ...
Where can we find your performance? Tell me more ...
Your comment:
Please, log in to post your performance.