Artists by letter: A B C D E F G H I J K L M N O P Q R S T U V W X Y Z 0-9

 
America Tab
Hi, this is Dead17Pool, i lost my passcode for my user.... I've learned this song by 
ear, so i'm kind of lazy to actually put the tab in detail. Anyway, Deuce rocks :D Please 
rate, and make any corrections if this is either good or bad. Thanks

Tune your guitar to dropped D Tuning
Tuning:Drop D

e|---x--x--x--x-----------------------------------------------------------|
B|---x--x--x--x-----------------------------------------------------------|
G|---x--x--x--x-----------------------------------------------------------|
D|---x--x--x--x---9----12--------5----7-----------------------------------|
A|---x--x--x--x---9----12--------5----7-----------------------------------|
E|---x--x--x--x---9----12--------5----7-----------------------------------|

e|-----------------| listen to the song how many times you hit the note
B|----12-12-12-12--|

Verse
Guitar 2 (Clean)

e|--------------------------------------------------------------|
B|--------------------------------------------------------------|
G|----4--7------------7------9----------------------------------|
D|----------0---4--5------7-------------------------------------|
A|--------------------------------------------------------------|
E|--------------------------------------------------------------|
             again, listen to the song. i'm lazy to write the actual times
                    to hit the note :P

Pre-Chorus
Guitar

e|-------------------------------|
B|-------------------------------|
G|-------------------------------|
D|-----/9---/12--5--/7----------|
A|------x-----x---x---x----------|
E|-----/9---/12--5--/7----------|

Bridge
                                     1st and 3th time     2nd and 4th time
e|-----------------------------------------------------------------------|
B|------------------------------------------------------------11---------|
G|------------------------------------11-11-------------------x----------|
D|------------------------------------------------------------9----------|
A|xxxx---9879879798798797-------------9--9---------xxxx------------------|
E|xxxx---9879879798798797--------------------------xxxx------------------|

I hope this is correct.... ENJOY!!!!!!!!!!!!!!!!!!!!!!
 
 
Deuce - America Tab :: indexed at Ultimate Guitar.
America tabs @ 911Tabs
People who played Deuce - America Tab also played these songs by Deuce:
The One Chords, America Tab, America Tab, Help Me Tab, Lets Get It Crackin Tab, America Tab

Quick tip, so you can enjoy America Tab even more:

If you don't really know how to deal with "Absus4" chord and his equally confusing brothers, just put the mouse cursor over them and you will be shown a helpful chord diagram.

Show us your talent, perform America Tab!

Here you can post a video or audio performance. Tell me more ...
Where can we find your performance? Tell me more ...
Your comment:
Please, log in to post your performance.