Artists by letter: A B C D E F G H I J K L M N O P Q R S T U V W X Y Z 0-9

 
Machinery Tab
------------------------------------------------------------------------------
             Machinery - Washya
------------------------------------------------------------------------------
Tuning: Drop C (DAFCGC)
Intro
D|-------------------------------------------------------|
A|-------------------------------------------------------|
F|-------------------------------------------------------|
C|-------------------------------------------------------|
G|-------------------------------------------------4-3-1-|
C|-3p0-3p0-3p0-1p0-3p0-3p0-3p0-1p0-3p0-3p0-3p0-1p0-4-3-1-|

Verses
D|-----------------------------------------|
A|-----------------------------------------|
F|-----------------------------------------|
C|-----------------------------------------|
G|-----------------1---3-------4-------431-|
C|-1-0-4-0-3-0-4-0---0---0-3-0---0-1-0-431-|
PM * * * * * * * *   *   * * *   * * *

Chorus
D|------------------------------------------------------------------|
A|------------------------------------------------------------------|
F|----------107--------------------------101010101077777----------|
C|-33-5-3-5---------------------------------------------------------|
G|-11-3-1-3-85--5-7-8-5-77777/1010101010-8-8-8-8-8-55555-55555-11-|
C|-11-3-1-3--------7-8-5-77777/1010101010------------------55555-11-|
 
 
Washya - Machinery Tab :: indexed at Ultimate Guitar.
Machinery tabs @ 911Tabs

Quick tip, so you can enjoy Machinery Tab even more:

After the registration (which takes just 10 seconds, remember?) you will be able to use your profile - your very own piece of YourChords.com.

Show us your talent, perform Machinery Tab!

Here you can post a video or audio performance. Tell me more ...
Where can we find your performance? Tell me more ...
Your comment:
Please, log in to post your performance.