Artists by letter: A B C D E F G H I J K L M N O P Q R S T U V W X Y Z 0-9

 
Ancient Insanity - Ashes Ashes Tab
INTRO

1|--------------------------------------------------------------|
2|--------------------------------------------------------------|
3|--------------------------------------------------------------|
4|------------------------------7-----10--9---7-----10--9---7---|
5|--5-----8---7---5-----8---7---5-----8---7---5-----8---7---5---|
6|--0-----0---0---0-----0---0---0-----0---0---0-----0---0---0---|

PRE-CHORUS
     *** * * * * *   *** * * * * *   *** * * * * *   *** * * * * *
1|-----------------------------------------------------------------|
2|-----------------------------------------------------------------|
3|-----------------------------------------------------------------|
4|-----------------------------------------------------------------|
5|---000-0-0-0-0-0---888-8-8-8-8-8---777-7-7-7-7-7---555-5-5-5-5-5-|
6|---000-0-0-0-0-0---888-8-8-8-8-8---777-7-7-7-7-7---555-5-5-5-5-5-|

*** * * * * *
1|----------------------------------------------------------------|
2|----------------------------------------------------------------|
3|----------------------------------------------------------------|
4|---------------5------------------------------------------------|
5|---333-3-3-3-0-3------------------------------------------------|
6|---333-3-3-3-0--------------------------------------------------|

*** * * * * *   *** * * * * *   *** * * * * *   *** * * * * *
1|-----------------------------------------------------------------|
2|-----------------------------------------------------------------|
3|-----------------------------------------------------------------|
4|-----------------------------------------------------------------|
5|---000-0-0-0-0-0---888-8-8-8-8-8---777-7-7-7-7-7---555-5-5-5-5-5-|
6|---000-0-0-0-0-0---888-8-8-8-8-8---777-7-7-7-7-7---555-5-5-5-5-5-|

*** * * * * *
1|----------------------------------------------------------------|
2|----------------------------------------------------------------|
3|----------------------------------------------------------------|
4|---------------5------------------------------------------------|
5|---333-3-3-3-0-3------------------------------------------------|
6|---333-3-3-3-0--------------------------------------------------|

CHORUS

1|-----------------------------------------------------------------|
2|-----------------------------------------------------------------|
3|-----------------------------------------------------------------|
4|-----------------------------------------------------------------|
5|---000-0-0-0-0-0---888-8-8-8-8-8---777-7-7-7-7-7---555-5-5-5-5-5-|
6|---000-0-0-0-0-0---888-8-8-8-8-8---777-7-7-7-7-7---555-5-5-5-5-5-|

1|----------------------------------------------------------------|
2|----------------------------------------------------------------|
3|----------------------------------------------------------------|
4|---------------5------------------------------------------------|
5|---333-3-3-3-0-3------------------------------------------------|
6|---333-3-3-3-0--------------------------------------------------|



1|-----------------------------------------------------------------|
2|-----------------------------------------------------------------|
3|-----------------------------------------------------------------|
4|-----------------------------------------------------------------|
5|---000-0-0-0-0-0---888-8-8-8-8-8---777-7-7-7-7-7---555-5-5-5-5-5-|
6|---000-0-0-0-0-0---888-8-8-8-8-8---777-7-7-7-7-7---555-5-5-5-5-5-|

1|----------------------------------------------------------------|
2|----------------------------------------------------------------|
3|----------------------------------------------------------------|
4|---------------5------------------------------------------------|
5|---333-3-3-3-0-3------------------------------------------------|
6|---333-3-3-3-0--------------------------------------------------|

REFRAIN

1|--------------------------------------------------------------|
2|--------------------------------------------------------------|
3|--------------------------------------------------------------|
4|------------------------------7-----10--9---7-----10--9---7---|
5|--5-----8---7---5-----8---7---5-----8---7---5-----8---7---5---|
6|--0-----0---0---0-----0---0---0-----0---0---0-----0---0---0---|

PRE-CHORUS
     *** * * * * *   *** * * * * *   *** * * * * *   *** * * * * *
1|-----------------------------------------------------------------|
2|-----------------------------------------------------------------|
3|-----------------------------------------------------------------|
4|-----------------------------------------------------------------|
5|---000-0-0-0-0-0---888-8-8-8-8-8---777-7-7-7-7-7---555-5-5-5-5-5-|
6|---000-0-0-0-0-0---888-8-8-8-8-8---777-7-7-7-7-7---555-5-5-5-5-5-|

*** * * * * *
1|----------------------------------------------------------------|
2|----------------------------------------------------------------|
3|----------------------------------------------------------------|
4|---------------5------------------------------------------------|
5|---333-3-3-3-0-3------------------------------------------------|
6|---333-3-3-3-0--------------------------------------------------|

*** * * * * *   *** * * * * *   *** * * * * *   *** * * * * *
1|-----------------------------------------------------------------|
2|-----------------------------------------------------------------|
3|-----------------------------------------------------------------|
4|-----------------------------------------------------------------|
5|---000-0-0-0-0-0---888-8-8-8-8-8---777-7-7-7-7-7---555-5-5-5-5-5-|
6|---000-0-0-0-0-0---888-8-8-8-8-8---777-7-7-7-7-7---555-5-5-5-5-5-|

*** * * * * *
1|----------------------------------------------------------------|
2|----------------------------------------------------------------|
3|----------------------------------------------------------------|
4|---------------5------------------------------------------------|
5|---333-3-3-3-0-3------------------------------------------------|
6|---333-3-3-3-0--------------------------------------------------|

CHORUS

1|-----------------------------------------------------------------|
2|-----------------------------------------------------------------|
3|-----------------------------------------------------------------|
4|-----------------------------------------------------------------|
5|---000-0-0-0-0-0---888-8-8-8-8-8---777-7-7-7-7-7---555-5-5-5-5-5-|
6|---000-0-0-0-0-0---888-8-8-8-8-8---777-7-7-7-7-7---555-5-5-5-5-5-|

1|----------------------------------------------------------------|
2|----------------------------------------------------------------|
3|----------------------------------------------------------------|
4|---------------5------------------------------------------------|
5|---333-3-3-3-0-3------------------------------------------------|
6|---333-3-3-3-0--------------------------------------------------|



1|-----------------------------------------------------------------|
2|-----------------------------------------------------------------|
3|-----------------------------------------------------------------|
4|-----------------------------------------------------------------|
5|---000-0-0-0-0-0---888-8-8-8-8-8---777-7-7-7-7-7---555-5-5-5-5-5-|
6|---000-0-0-0-0-0---888-8-8-8-8-8---777-7-7-7-7-7---555-5-5-5-5-5-|

1|----------------------------------------------------------------|
2|----------------------------------------------------------------|
3|----------------------------------------------------------------|
4|---------------5------------------------------------------------|
5|---333-3-3-3-0-3------------------------------------------------|
6|---333-3-3-3-0--------------------------------------------------|

PRE-BREAKDOWN

1|--------------------------------------------------------------------|
2|--------------------------------------------------------------------|
3|----12-14-15-14-12------12--14--15--14-12--------12--14--15--14--12-|
4|-0-0--0--0--0------15-15--15--15--15--------14-14--14--14--14-------|
5|--------------------------------------------------------------------|
6|--------------------------------------------------------------------|



1|---------------------------------------------------------------|
2|---------------------------------------------------------------|
3|------12--14--12h14p10~----------------------------------------|
4|-12-12--12--12-------------------------------------------------|
5|---------------------------------------------------------------|
6|---------------------------------------------------------------|

1|--------------------------------------------------------------------|
2|--------------------------------------------------------------------|
3|----12-14-15-14-12------12--14--15--14-12--------12--14--15--14--12-|
4|-0-0--0--0--0------15-15--15--15--15--------14-14--14--14--14-------|
5|--------------------------------------------------------------------|
6|--------------------------------------------------------------------|



1|---------------------------------------------------------------|
2|---------------------------------------------------------------|
3|------12--14--12h14p10~----------------------------------------|
4|-12-12--12--12-------------------------------------------------|
5|---------------------------------------------------------------|
6|---------------------------------------------------------------|

BREAKDOWN
   ******* * * **** * *     ******* * * **** * *
1|---------------------------------------------------------------|
2|---------------------------------------------------------------|
3|---------------------------------------------------------------|
4|---------------------------------------------------------------|   X2
5|-0000000-0-0-0000-0-0-----0000000-0-0-0000-0-0-----------------|
6|-0000000-0-0-0000-0-0-----0000000-0-0-0000-0-0-----------------|

******* * * **** * *     ******* * * **** * *
1|---------------------------------------------------------------|
2|---------------------------------------------------------------|
3|---------------------------------------------------------------|
4|---------------------------------------------------------------|   X2
5|-5555555-5-5-5555-5-5-----8888888-8-8-7777-7-7-----------------|
6|-0000000-0-0-0000-0-0-----0000000-0-0-0000-0-0-----------------|

******* * * **** * *     ******* * * **** * *
1|---------------------------------------------------------------|
2|---------------------------------------------------------------|
3|---------------------------------------------------------------|
4|---------------------------------------------------------------|   X2
5|-0000000-0-0-0000-0-0-----0000000-0-0-0000-0-0-----------------|
6|-0000000-0-0-0000-0-0-----0000000-0-0-0000-0-0-----------------|

QUIET PART

1|--0-5-7-8-8-8-8-7-7-7-7-5-5-5-5-7-7-7------|
2|---------5-5-5-5-8-8-8-8-7-7-7-7-5-5-------|
3|-------------------------------------------|         X4
4|-------------------------------------------|
5|-------------------------------------------|
6|-------------------------------------------|

FAST PART

1|-------------------------------------------------------------------------|
2|-------------------------------------------------------------------------|
3|-5p0-7p0-8p0-5p0-8p0-5p0-8p0-5p0-8p0-5p0-7p0-3p0-7p0-3p0-7p0-3p0-7p0-3p0-|
4|-------------------------------------------------------------------------|
5|-------------------------------------------------------------------------|
6|-------------------------------------------------------------------------|

X2

1|------------------------------------------------------------------------|
2|------------------------------------------------------------------------|
3|-5p0-2p0-5p0-2p0-5p0-2p0-5p0-2p0-7p0-3p0-7p0-3p0-7p0-3p0-7p0-3p0--------|
4|------------------------------------------------------------------------|
5|------------------------------------------------------------------------|
6|------------------------------------------------------------------------|



1|-------------------------------------------------------------------------|
2|-------------------------------------------------------------------------|
3|-------------------------------------------------------------------------|
4|-5p0-7p0-8p0-5p0-8p0-5p0-8p0-5p0-8p0-5p0-7p0-3p0-7p0-3p0-7p0-3p0-7p0-3p0-|
5|-------------------------------------------------------------------------|
6|-------------------------------------------------------------------------|

X2

1|------------------------------------------------------------------------|
2|------------------------------------------------------------------------|
3|------------------------------------------------------------------------|
4|-5p0-2p0-5p0-2p0-5p0-2p0-5p0-2p0-7p0-3p0-7p0-3p0-7p0-3p0-7p0-3p0--------|
5|------------------------------------------------------------------------|
6|------------------------------------------------------------------------|

1|-------------------------------------------------------------------|
2|-------------------------------------------------------------------|
3|-------------------------------------------------------------------|
4|-8p0-7p0-8p0-5p0-7p0-5p0-7p0-3p0-5p0-3p0-5p0-2p0-3p0-2p0-3p0-------|      X4
5|-------------------------------------------------------------------|
6|-------------------------------------------------------------------|

PRE-CHORUS
     *** * * * * *   *** * * * * *   *** * * * * *   *** * * * * *
1|-----------------------------------------------------------------|
2|-----------------------------------------------------------------|
3|-----------------------------------------------------------------|
4|-----------------------------------------------------------------|
5|---000-0-0-0-0-0---888-8-8-8-8-8---777-7-7-7-7-7---555-5-5-5-5-5-|
6|---000-0-0-0-0-0---888-8-8-8-8-8---777-7-7-7-7-7---555-5-5-5-5-5-|

*** * * * * *
1|----------------------------------------------------------------|
2|----------------------------------------------------------------|
3|----------------------------------------------------------------|
4|---------------5------------------------------------------------|
5|---333-3-3-3-0-3------------------------------------------------|
6|---333-3-3-3-0--------------------------------------------------|

*** * * * * *   *** * * * * *   *** * * * * *   *** * * * * *
1|-----------------------------------------------------------------|
2|-----------------------------------------------------------------|
3|-----------------------------------------------------------------|
4|-----------------------------------------------------------------|
5|---000-0-0-0-0-0---888-8-8-8-8-8---777-7-7-7-7-7---555-5-5-5-5-5-|
6|---000-0-0-0-0-0---888-8-8-8-8-8---777-7-7-7-7-7---555-5-5-5-5-5-|

*** * * * * *
1|----------------------------------------------------------------|
2|----------------------------------------------------------------|
3|----------------------------------------------------------------|
4|---------------5------------------------------------------------|
5|---333-3-3-3-0-3------------------------------------------------|
6|---333-3-3-3-0--------------------------------------------------|

CHORUS

1|-----------------------------------------------------------------|
2|-----------------------------------------------------------------|
3|-----------------------------------------------------------------|
4|-----------------------------------------------------------------|
5|---000-0-0-0-0-0---888-8-8-8-8-8---777-7-7-7-7-7---555-5-5-5-5-5-|
6|---000-0-0-0-0-0---888-8-8-8-8-8---777-7-7-7-7-7---555-5-5-5-5-5-|

1|----------------------------------------------------------------|
2|----------------------------------------------------------------|
3|----------------------------------------------------------------|
4|---------------5------------------------------------------------|
5|---333-3-3-3-0-3------------------------------------------------|
6|---333-3-3-3-0--------------------------------------------------|



1|-----------------------------------------------------------------|
2|-----------------------------------------------------------------|
3|-----------------------------------------------------------------|
4|-----------------------------------------------------------------|
5|---000-0-0-0-0-0---888-8-8-8-8-8---777-7-7-7-7-7---555-5-5-5-5-5-|
6|---000-0-0-0-0-0---888-8-8-8-8-8---777-7-7-7-7-7---555-5-5-5-5-5-|

1|----------------------------------------------------------------|
2|----------------------------------------------------------------|
3|----------------------------------------------------------------|
4|---------------5------------------------------------------------|
5|---333-3-3-3-0-3------------------------------------------------|
6|---333-3-3-3-0--------------------------------------------------|

OUTRO
   ******* * * **** * *     ******* * * **** * *
1|---------------------------------------------------------------|
2|---------------------------------------------------------------|
3|---------------------------------------------------------------|
4|---------------------------------------------------------------|   X2
5|-0000000-0-0-0000-0-0-----0000000-0-0-0000-0-0-----------------|
6|-0000000-0-0-0000-0-0-----0000000-0-0-0000-0-0-----------------|
 
 
Misc Unsigned Bands - Ancient Insanity - Ashes Ashes Tab :: indexed at Ultimate Guitar.
Ancient Insanity - Ashes Ashes tabs @ 911Tabs

Quick tip, so you can enjoy Ancient Insanity - Ashes Ashes Tab even more:

YourChords.com Guitar Chords and Tabs Archive is currently indexing over 240'000 songs from 21'000+ different artists. And new chords just keep on coming in, so you will surely never run out of them.

Show us your talent, perform Ancient Insanity - Ashes Ashes Tab!

Here you can post a video or audio performance. Tell me more ...
Where can we find your performance? Tell me more ...
Your comment:
Please, log in to post your performance.