Artists by letter: A B C D E F G H I J K L M N O P Q R S T U V W X Y Z 0-9

 
Music In Dreamland Tab
-------------------------------------------------------------------------------
Music In Dreamland - Be Bop Deluxe
-------------------------------------------------------------------------------

Tabbed by: axe victim

Email: [email protected]

Leave a message on my  'Ultimate Guitar'  profile or comment
here and I'll get back to you.

Tuning: EADGBe



| /  slide up
|   slide down
| s  very rapid slide, sounds like one note
| h  hammer-on
| p  pull-off
| ~  vibrato or sustain
| +  harmonic
| x  Mute note
| b  bend
| r  relax bend
| pb pre-bend
| ^  quarter tone bend
| (x7678x) chord shape



Musical masterpiece from the Futurama album, in the Brass-Band friendly key
of Db.  Hope you enjoy playing it as much as I enjoyed tabbing it!



Intro: strum chords ad lib

___________________________________________________________________________

e|------------------------------------|------------------------------------|
B|------------------------------------|------------------------------------|
G|------------------------------------|------------------------------------|
D|------------------------------------|-------------------3-----4-----6----|
A|------------------------------------|------------------------------------|
E|------------------------------------|------------------------------------|

___Db_(x43121)_____________________________________________________________

e|------------------------------------|------------------------------------|
B|------------------------------------|------------------------------------|
G|------------------------------------|------------------------------------|
D|------------------------------------|-------------------3-----4-----6----|
A|-4----------------------------------|------------------------------------|
E|------------------------------------|------------------------------------|

___Eb_(x65343)_____________________________________________________________

e|------------------------------------|------------------------------------|
B|------------------------------------|------------------------------------|
G|------------------------------------|------------------------------------|
D|------------------------------------|-------------------3-----4-----6----|
A|-1----------------------------------|------------------------------------|
E|------------------------------------|------------------------------------|

___Gb_(244322)_____________________________________________________________

e|------------------------------------|------------------------------------|
B|------------------------------------|------------------------------------|
G|------------------------------------|------------------------------------|
D|------------------------------------|-------------------------------4----|
A|------------------------------------|------------------------------------|
E|-2----------------------------------|-------------------2-----6----------|

___Db_(x43121)_____________________________________________________________

e|------------------------------------|------------------------------------|
B|------------------------------------|------------------------------------|
G|------------------------------------|------------------------------------|
D|-3----------------------------------|------------------------------------|
A|------------------------------------|------------------------------------|
E|------------------------------------|------------------------------------|



intro guitar solo Part A:

___Db_(x43121)_____________________________________________________________

e|----6-------------------------------|------------------------------------|
B|-6~~---6--9-----6-------------------|------------------------------------|
G|-8b10--------8-----6-h8-----6-------|----------------------------------8^~~
D|-------------------------8-----6--8-|-6----------------------------------|
A|------------------------------------|----8--6--4--6-----6~~~~~~~~--------|
E|------------------------------------|----------------8-------------------|

| 1  2  3  1  2  3  1  2  3  1  2  3 | 1  2  3  1  2  3  1  2  3  1  2  3 |

___Eb_(x65343)_____________________________________________________________

e|-------6--------6-------------------|------------------------------------|
B|----6-----6--9-----6----------------|------------------------------------|
G|b10-------------------6-h8-----6----|------------------------------------|
D|----------------------------8-----6-|-8--6-------------------------------|
A|------------------------------------|------8s6-4-h6-----4~~~~~~~~--------|
E|------------------------------------|----------------6-------------------|

| 1  2  3  1  2  3  1  2  3  1  2  3 | 1  2  3  1  2  3  1  2  3  1  2  3 |

Part B:

___Gb_(244322)_____________________________________________________________

e|------------------------------------|------------------------------------|
B|------------------------------------|------------------------------------|
G|------------------------------------|------------------------------------|
D|------------------------------------|-11-13-15-11-13-15-11-13-15-11-13-15|
A|-11-13-15-11-13-15-11-13-15-11-13-15|------------------------------------|
E|------------------------------------|------------------------------------|

| 1  2  3  1  2  3  1  2  3  1  2  3 | 1  2  3  1  2  3  1  2  3  1  2  3 |

___Gb_(244322)______________________________________________________________

e|------------------------------------|------------------------------------|
B|------------------------------------|-13-14-16-13-14-16-13-14-16-13-14-16|
G|-11-13-15-11-13-15-11-13-15-11-13-15|------------------------------------|
D|------------------------------------|------------------------------------|
A|------------------------------------|------------------------------------|
E|------------------------------------|------------------------------------|

___Db_(x43121)_____________________________________________________________

e|-13----14~~~/16----------14----16---|-18--------------------------------|
B|-------------------18---------------|------------------------------------|
G|------------------------------------|------------------------------------|
D|------------------------------------|------------------------------------|
A|------------------------------------|------------------------------------|
E|------------------------------------|------------------------------------|



Part A repeats, sightly different this time....



___Db_(x43121)_____________________________________________________________

e|-------6----------------------------|------------------------------------|
B|----6-----6--9-----6----------------|------------------------------------|
G|b10-------------8-----6-h8-----6----|------------------------------------|
D|----------------------------8-----6-|-8--6-------------------------------|
A|------------------------------------|------8p6h8--6--4--6--4-----4--6-/8-|
E|------------------------------------|-------------------------6----------|

___Eb_(x65343)_____________________________________________________________

e|------------------------------------|----------6-------------------------|
B|------------------------------------|-------6h9---6--9-----6--9-----6~~~-|
G|-------6-----6--8^-8^~~~p6--8--6----|-6--8h10-----------8--------8-------|
D|-6-h8-----8-----------------------8-|------------------------------------|
A|------------------------------------|------------------------------------|
E|------------------------------------|------------------------------------|

Repeat Part B.

Verse: Rhythm chords in brackets, piano arranged for guitar. 
Strum/pick guitar ad lib.



___Db_(x43121)__________________________Gb_(244322)________________________
 " Standing by   the old       car      sunset  in   your grey     eyes... "

___Db_(x43121)__________________________Gb_(244322)________________________
 " listening to  the bluebirds          praying for       a        sunrise.... "

___Bbm_(688666)_________________________Ab_(466544)________________________
             " I     know  we'll  make  Mus - ic   in     dreamland   to... "

___Gb_(244322)_____________________________________________________________
 "" night... "



Repeat verse.  Second time ends:  " ...waltzing in dreamland... "

___Gbsus4_(244322)_________________________________________________________
 " night... "
e|------------------------------------|------------------------------------|
B|------------------------------------|------------------------------------|
G|-------4-----4-----------4-----4----|------------------------------------|
D|-------4-----4-----------4-----4----|------------------------------------|
A|-------4-----4-----------4-----4----|------------------------------------|
E|-2-----------------2----------------|-2----------------------------------|



Instrumental passage: ( Rhythm chords in brackets )

___Db_(x43121)_____________________________________________________________

e|------------------------------------|------------------------------------|
B|------------------------------------|------------------------------------|
G|------------------------------------|------------------------------------|
D|-------------------------------4----|-3-----------------------------2--3-|
A|-4~~~~~~~~~~~~~~---4-----3----------|----------------------4--5--6-------|
E|------------------------------------|------------------------------------|

| 1  2  3  1  2  3  1  2  3  1  2  3 | 1  2  3  1  2  3  1  2  3  1  2  3 |



___Gb_(x65343)_____________________________________________________________

e|------------------------------------|------------------------------------|
B|------------------------------------|------------------------------------|
G|-------------------------------4----|-3~~~~~~~~~~~~~~~~----------5-------|
D|-4~~~~~~~~~~~~~~---4-----3----------|------------------------------------|
A|------------------------------------|------------------------------------|
E|------------------------------------|------------------------------------|

___Db_(x43121)_______C_(x32010)_________Bbm_(x13321)______Ab_(466544)______

e|------------------------------------|------------------------------------|
B|------------------------------------|------------------------------------|
G|-6-----------------5----------------|-3----------------------------------|
D|------------------------------------|-------------------6----------------|
A|------------------------------------|------------------------------------|
E|------------------------------------|------------------------------------|

___Gb_(244322)_______Fm_(133111)________Eb_(x65343)________________________

e|------------------------------------|------------------------------------|
B|------------------------------------|------------------------------------|
G|------------------------------------|------------------------------------|
D|-4-----------------3----------------|------------------------------------|
A|------------------------------------|-6----------------------------------|
E|------------------------------------|------------------------------------|

Continues...

___Eb_(x65343)_____________________________________________________________

e|------------------------------------|------------------------------------|
B|------------------------------------|------------------------------------|
G|------------------------------------|------------------------------------|
D|-------------------------------6----|-5-----------------------------4--5-|
A|-6-----------------6-----5----------|----------------------6--7--8-------|
E|------------------------------------|------------------------------------|

___Ab_(466544)_____________________________________________________Bb_(688766)

e|------------------------------------|------------------------------------|
B|------------------------------------|------------------------------------|
G|-------------------------------6----|-5--------------------------7-------|
D|-6-----------------6-----5----------|------------------------------------|
A|------------------------------------|------------------------------------|
E|------------------------------------|------------------------------------|

___Ebm_(x68876)______Db_(x4666x)________Ebm_(x68876)______Db_(x4666x)______

e|------------------------------------|------------------------------------|
B|------------------------------------|------------------------------------|
G|-8-----------------6----------------|-8-----------------6----------------|
D|------------------------------------|------------------------------------|
A|------------------------------------|------------------------------------|
E|------------------------------------|------------------------------------|

___Ebm_(x68876)______Db_(x4666x)________Ebm_(x68876)_______________________

e|------------------------------------|------------------------------------|
B|------------------------------------|------------------------------------|
G|-8-----------------6----------------|-8----------------------------------|
D|------------------------------------|------------------------------------|
A|------------------------------------|------------------------------------|
E|------------------------------------|------------------------------------|

Middle Part:

___Ebm_____________________________________________________________________
        " I have some pictures                         I  paint them in my... "
e|-6--------6--------6--------6-------|-6--------6--------6--------6-------|
B|-7--------7--------7--------7-------|-7--------7--------7--------7-------|
G|-8--------8--------8--------8-------|-8--------8--------8--------8-------|
D|-8--------8--------8--------8-------|-8--------8--------8--------8-------|
A|-6--------6--------6--------6-------|-8--------8--------8--------8-------|
E|------------------------------------|------------------------------------|

___Db_______Db/Ab____Db_________________Db_______Db/Ab____Db_______________
 " sleep... "
e|------------------------------------|------------------------------------|
B|-6--6--6--6--6--6--6----------------|-6--6--6--6--6--6--6----------------|
G|-6--6--6--6--6--6--6----------------|-6--6--6--6--6--6--6----------------|
D|-6--6--6--6--6--6--6----------------|-6--6--6--6--6--6--6----------------|
A|-4--4--4--x--x--x--4----------------|-4--4--4--x--x--x--4----------------|
E|----------4--4--4-------------------|----------4--4--4-------------------|

___Ebm_(x68876)____________________________________________________________
     " They make me laugh                            sometimes they make me... "
e|-6--------6--------6--------6-------|-6--------6--------6--------6-------|
B|-7--------7--------7--------7-------|-7--------7--------7--------7-------|
G|-8--------8--------8--------8-------|-8--------8--------8--------8-------|
D|-8--------8--------8--------8-------|-8--------8--------8--------8-------|
A|-6--------6--------6--------6-------|-8--------8--------8--------8-------|
E|------------------------------------|------------------------------------|

___Db_______Db/Ab____Db_________________Db_______Db/Ab____Db_______________
 " weep... "
e|------------------------------------|------------------------------------|
B|-6--6--6--6--6--6--6----------------|-6--6--6--6--6--6--6----------------|
G|-6--6--6--6--6--6--6----------------|-6--6--6--6--6--6--6----------------|
D|-6--6--6--6--6--6--6----------------|-6--6--6--6--6--6--6----------------|
A|-4--4--4--x--x--x--4----------------|-4--4--4--x--x--x--4----------------|
E|----------4--4--4-------------------|----------4--4--4-------------------|



___C____________________________________C7_________________________________
                   " You are         in my       pictures    too... "
e|-8--------8--------8--------8-------|-8--------8--------8--------8-------|
B|-8--------8--------8--------8-------|-8--------8--------8--------8-------|
G|-9--------9--------9--------9-------|-9--------9--------9--------9-------|
D|-10-------10-------10-------10------|-8--------8--------8--------8-------|
A|-10-------10-------10-------10------|-10-------10-------10-------10------|
E|------------------------------------|------------------------------------|



___Ebm__________________________________Ebm7_______________________________
 " too...
e|-6--------6--------6--------6-------|-6--------6--------6--------6-------|
B|-7--------7--------7--------7-------|-7--------7--------7--------7-------|
G|-8--------8--------8--------8-------|-6--------6--------6--------6-------|
D|-8--------8--------8--------8-------|-8--------8--------8--------8-------|
A|-6--------6--------6--------6-------|-6--------6--------6--------6-------|
E|------------------------------------|------------------------------------|

___Ab/C_________________________________B__________________________________
                   " Portraits       of       the      moon     in... "
e|-8--------8--------8--------8-------|-7--------7--------7--------7-------|
B|-9--------9--------9--------9-------|-7--------7--------7--------7-------|
G|-8--------8--------8--------8-------|-8--------8--------8--------8-------|
D|-10-------10-------10-------10------|-9--------9--------9--------9-------|
A|-11-------11-------11-------11------|-9--------9--------9--------9-------|
E|-8--------8--------8--------8-------|-7--------7--------7--------7-------|

__Gb____________________________________Eb_________________________________
 " silver and blue..."
e|-2----------------------------------|-3----------------------------------|
B|-2----------------------------------|-4----------------------------------|
G|-3----------------------------------|-3----------------------------------|
D|-4----------------------------------|-5----------------------------------|
A|-4----------------------------------|-6----------------------------------|
E|-2----------------------------------|------------------------------------|



Repeat instrumental, Eb part, thus:

___Eb_(x65343)_____________________________________________________________

e|------------------------------------|------------------------------------|
B|------------------------------------|------------------------------------|
G|------------------------------------|------------------------------------|
D|-------------------------------6----|-5-----------------------------4--5-|
A|-6-----------------6-----5----------|----------------------6--7--8-------|
E|------------------------------------|------------------------------------|

___Ab_(466544)_____________________________________________________Bb_(688766)

e|------------------------------------|------------------------------------|
B|------------------------------------|------------------------------------|
G|-------------------------------6----|-5--------------------------7-------|
D|-6-----------------6-----5----------|------------------------------------|
A|------------------------------------|------------------------------------|
E|------------------------------------|------------------------------------|

___Eb5_(x688xx)______D_(x577xx)_________Db5_(x466xx)_______________________

e|------------------------------------|------------------------------------|
B|------------------------------------|------------------------------------|
G|-8-----------------7----------------|-6/---------------------------------|
D|------------------------------------|------------------------------------|
A|------------------------------------|------------------------------------|
E|------------------------------------|------------------------------------|



Repeat intro.

Solo: 02:21

Part A:

___Db_(x43121)_____________________________________________________________

e|-------6----------------------------|------------------------------------|
B|----6-----6--9-----6----------------|------------------------------------|
G|b10-------------8-----6-h8-----6----|----------------6-----------------8^~
D|----------------------------8-----6-|-8--6-----6--8-----8~~~-------------|
A|------------------------------------|-------8----------------------------|
E|------------------------------------|------------------------------------|

___Eb_(x65343)_____________________________________________________________

e|-------6----------------------------|------------------------------------|
B|----6----6---9-----6----------------|------------------------------------|
G|b10-------------8-----6-h8-----6--5-|------------------------------------|
D|---------------------------6-h8-----|-8--6-------------------------------|
A|------------------------------------|------8s6-4--6-----6----------------|
E|------------------------------------|----------------8-------------------|

Part B:

___Gb_(244322)_____________________________________________________________

e|------------------------------------|------------------------------------|
B|------------------------------------|------------------------------------|
G|------------------------------------|------------------------------------|
D|------------------------------------|-11-13-15-11-13-15-11-13-15-11-13-15|
A|-11-13-15-11-13-15-11-13-15-11-13-15|------------------------------------|
E|------------------------------------|------------------------------------|

___Gb_(244322)______________________________________________________________

e|------------------------------------|------------------------------------|
B|------------------------------------|-13-14-16-13-14-16-13-14-16-13-14-16|
G|-11-13-15-11-13-15-11-13-15-11-13-15|------------------------------------|
D|------------------------------------|------------------------------------|
A|------------------------------------|------------------------------------|
E|------------------------------------|------------------------------------|

___Db_(x43121)_____________________________________________________________

e|-13----14~~~/16----------14----16---|-18--------------------------------|
B|-------------------18---------------|------------------------------------|
G|------------------------------------|----------------------------------8^~~
D|------------------------------------|------------------------------------|
A|------------------------------------|------------------------------------|
E|------------------------------------|------------------------------------|

Repeat part A, as below:

___Db_(x43121)_____________________________________________________________

e|----6-------------------------------|------------------------------------|
B|-------6--9-----6-------------------|------------------------------------|
G|8b10---------8-----6--8-----6-------|-8--6-------------------------------|
D|-------------------------8-----6-h8-|-------8--6-------------------------|
A|------------------------------------|------------8s6-4--6~~------4~~---6~~
E|------------------------------------|------------------------------------|

___Eb_(x65343)_____________________________________________________________

e|----------------------------------6-|-6----------------------------------|
B|-------------------------------6----|----9-----6-------------------------|
G|----------6-----6--6-----6--6b8-----|-------8-----6--8--6~~~-------------|
D|----6--8-----8--------8-------------|------------------------------------|
A|/8----------------------------------|------------------------------------|
E|------------------------------------|------------------------------------|

Repeat part B:

Repeat verse. 02:51

Ringing in the changes
Chiming like a church bell
Laughing in the mirror
Phantoms of the hotel
Oh well, we'll make music in dreamland tonight...

Driving like a madman
Trying to make a fast time
Theatre full of strangers
Waiting for a new rhyme
No time to make music in dreamland tonight

It's time to make music in dreamland tonight
Your mine and my music's in dreamland...



_____________________Abm_
 " tonight... "
e|------------------|----
B|------------------|----
G|------------------|----
D|-4--3-------------|----
A|-------6--4--2----|----
E|----------------6-|-4~~



___Abm_____________________________________________________________________

e|-4--------4--------4--------4-------|-4--------4--------4--------4-------|
B|-4--------4--------4--------4-------|-4--------4--------4--------4-------|
G|-4--------4--------4--------4-------|-4--------4--------4--------4-------|
D|-6--------6--------6--------6-------|-6--------6--------6--------6-------|
A|-6--------6--------6--------6-------|-6--------6--------6--------6-------|
E|-4--------4--------4--------4-------|-6--------6--------6--------6-------|



Ending:

___B_(799877)___________________________Gb/Bb_(698676)_____________________

e|------------------------------------|------------------------------------|
B|------------------------------------|------------------------------------|
G|------------------------------------|------------------------------------|
D|------------------------------------|------------------------------------|
A|-2----------------------------------|-1----------------------------------|
E|------------------------------------|------------------------------------|

___A_(577655)___________________________Abm_(466444)____________Gb_(244322)_

e|------------------------------------|------------------------------------|
B|------------------------------------|------------------------------------|
G|------------------------------------|------------------------------------|
D|------------------------------------|------------------------------------|
A|-0----------------------------------|------------------------------------|
E|------------------------------------|-4-----------------------2-----2----|

___B_(799877)___________________________Gb/Bb_(698676)_____________________

e|------------------------------------|------------------------------------|
B|------------------------------------|------------------------------------|
G|------------------------------------|------------------------------------|
D|------------------------------------|------------------------------------|
A|-2----------------------------------|-1----------------------------------|
E|------------------------------------|------------------------------------|

___A_(577655)___________________________Abm_(466444)_______________________

e|------------------------------------|------------------------------------|
B|------------------------------------|------------------------------------|
G|------------------------------------|------------------------------------|
D|------------------------------------|------------------------------------|
A|-0----------------------------------|------------------------------------|
E|------------------------------------|-4----------------------------------|

___Gb_(244322)_____________________________________________________________

e|------------------------------------|------------------------------------|
B|------------------------------------|------------------------------------|
G|------------------------------------|------------------------------------|
D|------------------------------------|------------------------------------|
A|------------------------------------|------------------------------------|
E|-2----------------------------------|------------------------------------|



Finale, with guitar solo.

To be continued...



Words & Music by Bill Nelson



| /  slide up
|   slide down
| s  very rapid slide, sounds like one note
| h  hammer-on
| p  pull-off
| ~  vibrato or sustain
| +  harmonic
| x  Mute note
| b  bend
| r  relax bend
| pb pre-bend
| ^  quarter tone bend
| (x7678x) chord shape



If you are a beginner here's some help with finger position  where you
see this symbol - @

t = thumb ( like, duh )
i = index ( finger you point with )
m = middle ( you shouldn't point with that one ;-) )
r = ring finger ( wedding ring, natch )
p = pinky ( little finger )

You can use different fingers if you want, of course!

Rhythm chords in brackets.



___Eb_(x65343)_____________________________________________________________

e|-------------6-----------------6-----------------------------------------|
B|-------6-----------6-----9-----------6-----------------------------------|
G|b10----------------------------------------6----h8-----------6-----------|
D|-------------------------------------------------------8-----------6-----|
A|-------------------------------------------------------------------------|
E|-------------------------------------------------------------------------|
@  m     i     i     i     r     i     i     i     r     m     i     i

___Eb_(x65343)_____________________________________________________________
          ( s = slur: very rapid slide, sounds like one note )
e|-------------------------------------------------------------------------|
B|-------------------------------------------------------------------------|
G|-------------------------------------------------------------------------|
D|-8-----6-----------------------------------------------------------------|
A|------------8s6----4----h6-----------4~~~~~~~~~~~~~~~~~------------------|
E|-------------------------------6-----------------------------------------|
@  r     i    r      i     r     m     i~~~~~~~~~~~~~~~~~

___Gb_(244322)_____________________________________________________________

e|-------------------------------------------------------------------------|
B|-------------------------------------------------------------------------|
G|-------------------------------------------------------------------------|
D|-------------------------------------11----13----15----11----13----15----|
A|-11----13----15----11----13----15----------------------------------------|
E|-------------------------------------------------------------------------|

| 1  -  2  -  3  -  1  -  2  -  3  -  1  -  2  -  3  -  1  -  2  -  3  -  |

___Gb_(244322)_____________________________________________________________

e|-------------------------------------------------------------------------|
B|-------------------------------------13----14----16----13----14----16----|
G|-11----13----15----11----13----15----------------------------------------|
D|-------------------------------------------------------------------------|
A|-------------------------------------------------------------------------|
E|-------------------------------------------------------------------------|
@  i     m     p     i     m     p     i     m     p     i     m     p

___Db_(x43121)_____________________________________________________________

e|-13----------14---------/16----------------------14----------16----------|
B|-------------------------------------18----------------------------------|
G|-------------------------------------------------------------------------|
D|-------------------------------------------------------------------------|
A|-------------------------------------------------------------------------|
E|-------------------------------------------------------------------------|
@  i           m          /m           p           i           m

___Db_(x43121)_____________________________________________________________

e|-18---------------------------------------------------------------------|
B|-------------------------------------------------------------------------|
G|--------------------------------------------------------------8^~~~~~~~~~~
D|-------------------------------------------------------------------------|
A|-------------------------------------------------------------------------|
E|-------------------------------------------------------------------------|
@  p

Section repeats, sightly different this time....



___Db_(x43121)_____________________________________________________________
00:18
e|-------------6-----------------------------------------------------------|
B|-------6-----------6-----9-----------6-----------------------------------|
G|b10----------------------------8-----------6----h8-----------6-----------|
D|-------------------------------------------------------8-----------6-----|
A|-------------------------------------------------------------------------|
E|-------------------------------------------------------------------------|

| 1  -  2  -  3  -  1  -  2  -  3  -  1  -  2  -  3  -  1  -  2  -  3  -  |



___Db_(x43121)_____________________________________________________________

e|-------------------------------------------------------------------------|
B|-------------------------------------------------------------------------|
G|-------------------------------------------------------------------------|
D|-8-----6-----------------------------------------------------------------|
A|-------------8-p6-h8-----6-----4-----6-----4-----------4-----6----/8-----|
E|-------------------------------------------------6-----------------------|



___Eb_(x65343)_____________________________________________________________
0:21:45
e|-------------------------------------------------------------------------|
B|-------------------------------------------------------------------------|
G|-------------6-----------6-----8^----8^~~~~~~~~~p6-----8-----6-----------|
D|-6----h8-----------8-----------------------------------------------8-----|
A|-------------------------------------------------------------------------|
E|-------------------------------------------------------------------------|



___Eb_(x65343)_____________________________________________________________

e|-------------------6-----------------------------------------------------|
B|-------------6-h9--------6-----9-----------6-----9-----------6~~~--------|
G|-6-----8-h10-------------------------8-----------------8-----------------|
D|-------------------------------------------------------------------------|
A|-------------------------------------------------------------------------|
E|-------------------------------------------------------------------------|
@  i     m  p  i  r  i     i     r     m     i     r     m     i~~~


 
 
Be Bop Deluxe - Music In Dreamland Tab :: indexed at Ultimate Guitar.
Music In Dreamland tabs @ 911Tabs
People who played Be Bop Deluxe - Music In Dreamland Tab also played these songs by Be Bop Deluxe:
Panic In The World Tab, Sister Seagull Tab, Crying To The Sky Tab, Ships In The Night Tab, Maid In Heaven Tab, Down On Terminal Street Tab

About the artist behind Music In Dreamland Tab:

Be Bop Deluxe were an English progressive rock band who achieved critical acclaim and moderate commercial success during the mid to late 1970s.

Indexed at Wikipedia.

Show us your talent, perform Music In Dreamland Tab!

Here you can post a video or audio performance. Tell me more ...
Where can we find your performance? Tell me more ...
Your comment:
Please, log in to post your performance.