Artists by letter: A B C D E F G H I J K L M N O P Q R S T U V W X Y Z 0-9

 
Turn It Off Tab
Turn It Off- Paramore

[Note: I'm really sorry if the Solo is slightly wrong]

Introduction:
[Drum Intro]

E|8-7-8-7-3--------|8-7-8-7-3-------|8-7-8-7-3--------|8-7-8-7-3-----------|
B|---------3-5-6-5-|---------3-5-6-5|---------3-5-6-5-|---------3-5-6-5-3-1|
G|----------------2|----------------|----------------2|--------------------|
D|-----------------|----------------|-----------------|--------------------|
A|-----------------|----------------|-----------------|--------------------|
E|-----------------|----------------|-----------------|--------------------|

[Verse 1+2]
I scraped my knees while i was praying...
E|---0----0-|
B|--1-1--1-1|
G|-0----0---|
D|2----2----|
A|----------|
E|----------|

And Found a demon in my safest haven...
E|---0----0-|
B|--1-1--1-1|
G|-0----0---|
D|3----3----|
A|----------|
E|----------|

[Alternate line to line]

[Power chords]
C                  G
And the worst part is
                Am
Before it get's any better
      F       G
We're heading for a cliff
C
And in the free fall,
G              Am
I will realize I'm better off
F              G
When I hit the bottom.

E|8-7-8-7-3---------|8-7-8-7-3-----------|
B|---------3-5-6-5--|---------3-5-6-5-6-8|
G|-----------------2|--------------------|
D|------------------|--------------------|
A|------------------|--------------------|
E|------------------|--------------------|

[Verse 3+4]

[Do the same as verses 1+2]

[Chorus]

Solo

E|8-7-8-7-3--------|8-7-8-7-3-------|-8-10-8|-12-10-8|
B|---------3-5-6-5-|---------3-5-6-5|-------|--------|
G|----------------2|----------------|9------|8-------|
D|-----------------|----------------|-------|--------|
A|-----------------|----------------|-------|--------|
E|-----------------|----------------|-------|--------|

E|----20-19-12-15-17-15-5--|
B|--17---------------------|
G|14-----------------------|
D|-------------------------|
A|-------------------------|
E|-------------------------|

Calm Bit

[It's the same thing as the previous verses but strum slowly then...]

Just turn it off...

E|0|
B|1|
G|0|
D|0|
A|-|
E|-|

Screamy bit:

[Note: Chords not in precise places. Just do 4 beats per chords]

[Bar chords]    --->                Or you could do the outro.

Am, C, F, G                    
AGAIN [Hayley Holds]

Am     C      F  G
AGAIN, AGAIN, AGAIN!!!!!!!!!!!

[Chorus]

Outro:

[Finger picking]

E|---------------|---------------|---------------|---------------|
B|6-5-5-6-5-5-5-5|6-5-5-6-5-5-5-5|6-5-5-6-5-5-5-5|5-3-3-3-3-3-3-3|
G|7-5-5-7-5-5-5-5|7-5-5-7-5-5-5-5|7-5-5-7-5-5-5-5|5-4-4-4-4-4-4-4|
D|---------------|---------------|---------------|---------------|
A|---------------|---------------|---------------|---------------|
E|---------------|---------------|---------------|---------------|

[Repeat til the end]

Just want to say, I'm really sorry I don't have the other guitar bit. I don't know it. 
reallyt this part is more important.

Enjoy :))
 
 
Paramore - Turn It Off Tab :: indexed at Ultimate Guitar.
Turn It Off tabs @ 911Tabs

About the artist behind Turn It Off Tab:

Paramore (IPA: /'pærəmɔər/) is an American rock band that formed in Franklin, Tennessee in 2004 consisting of Hayley Williams (lead vocals/keyboard), Josh Farro (lead guitar/backing vocals), Jeremy Davis (bass guitar), and Zac Farro (drums). The group released their debut album All We Know Is Falling in 2005, and their second album Riot! in 2007, which was certified gold in the US and the UK.

Indexed at Wikipedia.

Show us your talent, perform Turn It Off Tab!

Here you can post a video or audio performance. Tell me more ...
Where can we find your performance? Tell me more ...
Your comment:
Please, log in to post your performance.