Artists by letter: A B C D E F G H I J K L M N O P Q R S T U V W X Y Z 0-9

 
The Victim Tab
Title: The Victim
Artist: Memphis May Fire
Album: The Hollow
Words: Memphis May Fire
Music: Memphis May Fire
Copyright: Memphis May Fire

Legend
L - tied note
x - dead note
h - hammer on/pull off
b - bend
s - slide
~ - vibrato
g - ghost note
> - accentuated note
t - trill
M - palm mute
. - staccato
P - popping (bass)
S - slapping (bass)
+ - tapping
W - wide vibrato
< - fade in
w - whammy bar
= - tremolo picking
v - brush up
^ - brush down
V - pick stroke up
n - pick stroke down

D#|----------------------------|----------------------------|
A#|----------------------------|----------------------------|
F#|----------------------------|----------------------------|
C#|--0L----------0-----0--0L---|--0--0--0--0--0--0--0--0----|
G#|----------------------------|----------------------------|
C#|----------------------------|----------------------------|

----------------------------|----------------------------|
----------------------------|----------------------------|
----------------------------|----------------------------|
--1--------1-----1--1L------|--1--1--1--1--1--1--1--1----|
-----------3-----3--3L------|--3-------------------------|
----------------------------|----------------------------|

----------------------------|----------------------------|
----------------------------|----------------------------|
----------------------------|----------------------------|
--0--------0-----0--0L------|--0--0-----0--0-------------|
----------------------------|----------------------------|
----------------------------|----------------------------|

----------------------------|----------------------------|
----------------------------|----------------------------|
----------------------------|----------------------------|
--1--------1-----1--1L------|--1--1--4--4--4--4--4-------|
----------------------------|--------5--5--5--5--5-------|
----------------------------|----------------------------|

----------------------------------------------------|
----------------------------------------------------|
----------------------------------------------------|
--0-------------------------------------------------|
--0-----------0-----3h-5--5-------------------------|
--0-----0M-0M-0-----------------5-----4~------------|

----------------------------------------------------|
----------------------------------------------------|
----------------------------------------------------|
--------------------------------1-------------------|
--------3-----------5-----3-----1-------------------|
--0M-0M-3-----------5-----------1-------------------|

----------------------------------------------------|
----------------------------------------------------|
----------------------------------------------------|
--0-------------------------------------------------|
--0-----------0-----3h-5--5-------------------------|
--0-----0M-0M-0-----------------5-----4L------------|

----------------------------|
----------------------------|
--------------7-------------|
--------------0--1----------|
-----8-----10----1----------|
--4~-8-----10----1----------|

----------------------------------------------------|
----------------------------------------------------|
----------------------------------------------------|
--0-------------------------------------------------|
--0-----------0-----3h-5--5-------------------------|
--0-----0M-0M-0-----------------5-----4L------------|

----------------------------------------------------|
----------------------------------------------------|
----------------------------------------------------|
--------------------3-----3-----------3-------------|
--------2-----------3-----3-----3M-3M-3-------------|
--4~----------------------3-----------3-------------|

----------------------------------------------------|
----------------------------------------------------|
----------------------------------------------------|
--0-------------------------------------------------|
--0-----------0-----3h-5--5-------------------------|
--0-----0M-0M-0-----------------5-----4~------------|

----------------------------------------------------|
----------------------------------------------------|
----------------------------------------------------|
----------------------------------------------------|
--------3-----------5-----3-----1-------------------|
--0M-0M-3-----------5-----------1-------------------|

----------------------------------------------------|
----------------------------------------------------|
----------------------------------------------------|
----------------------------------------------------|
--0--------0.-------------------------0.------------|
--0--------0.-------------------------0.------------|

----------------------------------------------------|
----------------------------------------------------|
----------------------------------------------------|
----------------------------------------------------|
--------------0.----------0.----------3-------------|
--------0M-0M-0.----------0.----------3-------------|

----------------------------------------------------|
----------------------------------------------------|
----------------------------------------------------|
--5--------5--------3-----3-------------------------|
--5--------5----------------------------------------|
--5--------5--------------------3h-5-----3h-5--3----|

----------------------------------------------------|
----------------------------------------------------|
--------------------3~----3~-------------3----------|
--5--------5-----------------------------3----------|
--5--------5----------------------------------------|
--5--------5--------------------3h-5----------------|

----------------------------------------------------|
----------------------------------------------------|
----------------------------------------------------|
----------------------------------------------------|
--0--------0.-------------------------0.------------|
--0--------0.-------------------------0.------------|

----------------------------------------------------|
----------------------------------------------------|
----------------------------------------------------|
----------------------------------------------------|
--------------0.----------0.----------3-------------|
--------0M-0M-0.----------0.----------3-------------|

----------------------------------------------------|
----------------------------------------------------|
----------------------------------------------------|
--5--------5--------3-----3-------------------------|
--5--------5-----------------------------1----------|
--5--------5--------------------3h-5--------5h-3----|

----------------------------------------------------|
----------------------------------------------------|
--------------------------------------5--5--5h-7----|
--5--------5--------3--3--3h-5--5--5----------------|
--5--------5----------------------------------------|
--5--------5----------------------------------------|

----------------------------------------------------|-------|----------------|
----------------------------------------------------|-------|----------------|
--5L----------------------5-----7--5----------------|-------|----------------|
--------------------------------------8L------------|--8----|--8--------7L---|
----------------------------------------------------|-------|----------------|
----------------------------------------------------|-------|----------------|

-------|-------|-------|-------|-------|-------|-------|-------|-------|
-------|--8L---|--8L---|--8----|--10L--|--10b--|-------|-------|-------|
-------|-------|-------|-------|-------|-------|-------|-------|-------|
--7----|-------|-------|-------|-------|-------|-------|-------|-------|
-------|-------|-------|-------|-------|-------|-------|-------|-------|
-------|-------|-------|-------|-------|-------|-------|-------|-------|

----------------------------|----------------------------|
----------------------------|--------------6--8--6--8----|
-----3--3--3--3--3--2--2----|----------------------------|
--5-------------------------|-----3--3s-5----------------|
----------------------------|--5-------------------------|
----------------------------|----------------------------|

----------------------------|----------------------------|
----------------------------|----------------------------|
----------------------------|----------------------------|
----------------------------|----------------------------|
----------------------------|----------------------------|
----------------------------|----------------------------|

----------------------------|----------------------------|
----------------------------|----------------------------|
----------------------------|----------------------------|
----------------------------|----------------------------|
----------------------------|----------------------------|
----------------------------|----------------------------|

----------------------------|----------------------------|
----------------------------|----------------------------|
--3--3--2--2----------------|----------------------------|
--------------3--3s-5--5----|----------------------------|
----------------------------|--6--6--5--5----------------|
----------------------------|--------------7--7--8--6b---|

----------------------------------------------------|
----------------------------------------------------|
----------------------------------------------------|
--1--------1--------1.------------------------------|
--1--------1--------1.------------------------------|
--1--------1--------1.------------------------------|

----------------------------------------------------|
----------------------------------------------------|
----------------------------------------------------|
--------------------------3-------------------------|
--------------------------3-------------------------|
--------------------3M-3M-3-------------------------|

----------------------------------------------------|
----------------------------------------------------|
----------------------------------------------------|
--5--------5--------5.------------------------------|
--5--------5--------5.------------------------------|
--5--------5--------5.------------------------------|

----------------------------------------------------|
----------------------------------------------------|
----------------------------------------------------|
--------------------------3-------------------------|
--------------------------3-------------------------|
--------------------3M-3M-3-------------------------|

----------------------------------------------------|
----------------------------------------------------|
----------------------------------------------------|
--1--------1--------1.------------------------------|
--1--------1--------1.------------------------------|
--1--------1--------1.------------------------------|

----------------------------------------------------|
----------------------------------------------------|
----------------------------------------------------|
--------------------------3-------------------------|
--------------------------3-------------------------|
--------------------3M-3M-3-------------------------|

----------------------------------------------------|
----------------------------------------------------|
----------------------------------------------------|
--5--------5--------5.------------------------------|
--5--------5--------5.------------------------------|
--5--------5--------5.------------------------------|

----------------------------------------------------|
----------------------------------------------------|
----------------------------------------------------|
--------------------------3-----------0-------------|
--------------------------3-----------0-------------|
--------------------3M-3M-3-----------0-------------|

----------------------------------------------------|
----------------------------------------------------|
----------------------------------------------------|
----------------------------------------------------|
----------------------------------------------------|
--7--7--7--7.----7--7--7--7--7--7--7.----7--8--5----|

----------------------------------------------------|----------------|
----------------------------------------------------|----------------|
--------------------------11b---------7-----5h-7----|--7-------------|
--------------------------x-----------x-------------|--0-------------|
--------------------------9b----------5-------------|----------------|
--7b-7b-7b-7.----7--7--7--------------0-------------|-----5--4~------|

----------------------------------------------------|
----------------------------------------------------|
----------------------------------------------------|
--------------------------------1-------------------|
--------3-----------5-----3-----1-------------------|
--0M-0M-3-----------5-----------1-------------------|

----------------------------------------------------|
----------------------------------------------------|
----------------------------------------------------|
--0-------------------------------------------------|
--0-----------0-----3h-5--5-------------------------|
--0-----0M-0M-0-----------------5-----4L------------|

----------------------------|
----------------------------|
-----3-----5----------------|
-----3-----5--5--1----------|
-----1-----3--5--1----------|
--4~----------5--1----------|

----------------------------------------------------|
----------------------------------------------------|
----------------------------------------------------|
----------------------------------------------------|
--0--------0.-------------------------0.------------|
--0--------0.-------------------------0.------------|

----------------------------------------------------|
----------------------------------------------------|
----------------------------------------------------|
----------------------------------------------------|
--------------0.----------0.----------3-------------|
--------0M-0M-0.----------0.----------3-------------|

----------------------------------------------------|
----------------------------------------------------|
----------------------------------------------------|
--5--------5--------3-----3-------------------------|
--5--------5----------------------------------------|
--5--------5--------------------3h-5-----3h-5--3----|

----------------------------------------------------|
----------------------------------------------------|
--------------------3~----3~-------------3----------|
--5--------5-----------------------------3----------|
--5--------5----------------------------------------|
--5--------5--------------------3h-5----------------|

----------------------------------------------------|
----------------------------------------------------|
----------------------------------------------------|
----------------------------------------------------|
--0--------0.-------------------------0.------------|
--0--------0.-------------------------0.------------|

----------------------------------------------------|
--------------------------11----11-11----11-11-11---|
--------------------------14----14-14----14-14-14---|
--------7--------8----------------------------------|
--------8--------10---------------------------------|
--------7--------8----------------------------------|

----------------------------------------------------|
----------------------------------------------------|
----------------------------------------------------|
--0-----------------0-----------0--------0----------|
--0-----------------0-----------0--------0----------|
--0-----------------0-----------0--------0----------|

----------------------------------------------------|
----------------------------------------------------|
----------------------------------------------------|
--0-----------------0-----------0--------0----------|
--0-----------------0-----------0--------0----------|
--0-----------------0-----------0--------0----------|

----------------------------------------------------|
----------------------------------------------------|
----------------------------------------------------|
--0-----------------0-----------0--------0----------|
--0-----------------0-----------0--------0----------|
--0-----------------0-----------0--------0----------|

----------------------------|-------|-------|----------------------------|
----------------------------|-------|-------|----------------------------|
----------------------------|-------|-------|----------------------------|
--0--------0-----5----------|-------|-------|----------------------------|
--0--------0-----5----------|--1L---|--1----|----------------------------|
--0--------0-----5----------|--1L---|--1----|----------------------------|

----------------------------|
----------------------------|
----------------------------|
----------------------------|
----------------------------|
----------------------------|

----------------------------------------------------|
----------------------------------------------------|
----------------------------------------------------|
--1--------1--------1.------------------------------|
--1--------1--------1.------------------------------|
--1--------1--------1.------------------------------|

----------------------------------------------------|
----------------------------------------------------|
----------------------------------------------------|
--------------------------3-------------------------|
--------------------------3-------------------------|
--------------------3M-3M-3-------------------------|

----------------------------------------------------|
----------------------------------------------------|
----------------------------------------------------|
--5--------5--------5.------------------------------|
--5--------5--------5.------------------------------|
--5--------5--------5.------------------------------|

----------------------------------------------------|
----------------------------------------------------|
----------------------------------------------------|
--------------------------3-------------------------|
--------------------------3-------------------------|
--------------------3M-3M-3-------------------------|

----------------------------------------------------|
----------------------------------------------------|
----------------------------------------------------|
--1--------1--------1.------------------------------|
--1--------1--------1.------------------------------|
--1--------1--------1.------------------------------|

----------------------------------------------------|
----------------------------------------------------|
----------------------------------------------------|
--------------------------3-------------------------|
--------------------------3-------------------------|
--------------------3M-3M-3-------------------------|

----------------------------------------------------|
----------------------------------------------------|
----------------------------------------------------|
--5--------5--------5.------------------------------|
--5--------5--------5.------------------------------|
--5--------5--------5.------------------------------|

--------------------------------------------------------------------------------|
--------------------------------------------------------------------------------|
--------------------------------------------------------------------------------|
--------------------------------------------------------------------------------|
--------------------------------------------------------------1s-5-----------6--|
--------------------------------------------------------------------------------|

-----------------------|----------------------------|
-----------------------|----------------------------|
-----------------------|----------------------------|
-----------------------|----------------------------|
---------8-------------|--0M-------------0M---------|
-----------------------|--0M-------------0M---------|

----------------------------|----------------------------|
----------------------------|----------------------------|
----------------------------|----------------------------|
----------------------------|----------------------------|
--0M-------------0M----0M---|--0M-------0M-0M----0M------|
--0M-------------0M----0M---|--0M-------0M-0M----0M------|

----------------------------|
----------------------------|
----------------------------|
----------------------------|
-----0M-0M-0M---------------|
-----0M-0M-0M---------------|

----------------------------------------------------|
----------------------------------------------------|
----------------------------------------------------|
----------------------------------------------------|
--0M----------0M----------------0M-0M----0M----0M---|
--0M----------0M----------------0M-0M----0M----0M---|

----------------------------------------------------|
----------------------------------------------------|
----------------------------------------------------|
----------------------------------------------------|
--0M----------0M-0M-0M-------0M-0M----------0M-0M---|
--0M----------0M-0M-0M-------0M-0M----------0M-0M---|

----------------------------------------------------|
----------------------------------------------------|
----------------------------------------------------|
----------------------------------------------------|
--0M----------0M----------------0M-0M----0M----0M---|
--0M----------0M----------------0M-0M----0M----0M---|

----------------------------------------------------|
----------------------------------------------------|
----------------------------------------------------|
----------------------------------------------------|
--0M----------0M-0M-0M-------0M-0M-------0M-0M-0M---|
--0M----------0M-0M-0M-------0M-0M-------0M-0M-0M---|

----------------------------------------------------|
----------------------------------------------------|
----------------------------------------------------|
----------------------------------------------------|
--0M----------0M----------------0M-0M----0M----0M---|
--0M----------0M----------------0M-0M----0M----0M---|

----------------------------------------------------|
----------------------------------------------------|
----------------------------------------------------|
----------------------------------------------------|
--0M----------0M-0M-0M-------0M-0M----------0M-0M---|
--0M----------0M-0M-0M-------0M-0M----------0M-0M---|

----------------------------------------------------|
----------------------------------------------------|
----------------------------------------------------|
----------------------------------------------------|
--0M----------0M----------------0M-0M----0M----0L---|
--0M----------0M----------------0M-0M----0M----0L---|

----------------------------------------------------|
----------------------------------------------------|
----------------------------------------------------|
----------------------------------------------------|
--0M----------0M-0M-0M-0M-0M------------------------|
--0M----------0M-0M-0M-0M-0M------------------------|

----------------------------------------------------------------------------|
----------------------------------------------------------------------------|
-----------------------------7----------------------------------------------|
----------------------------------------------------------------------------|
--0M----------------------------------0M----------------0M------------------|
--0M-------0M-0M-0M-0M----------------0M----------------0M------------------|

----------------------------------------------------|
----------------------------------------------------|
--------------7-------------------------------------|
--------0-----------------------0-----0-------------|
--0M----0--------0M-0M----0M----0-----0-----0M-0M---|
--0M----0--------0M-0M----0M----0-----------0M-0M---|

----------------------------------------------------|
-----------3----------------------------------------|
-----------6----------------------------------------|
----------------------------------------------------|
--0M-0M-0M----0M-0M----0M-0M-0M-0M------------------|
--0M-0M-0M----0M-0M----0M-0M-0M-0M------------------|

----------------------------|
-----------------------4----|
-----------------------7----|
--0.----------0-------------|
--0.----------0--0M-0M------|
--0.-------0M-0--0M-0M------|

----------------------------------------------------|
-----------------------------------2----------------|
-----------------------------------5----------------|
-----------0----------------------------------------|
--0M-0M-0M-0--0M----0M-0M-0M----------------0M------|
--0M-0M-0M-0--0M----0M-0M-0M----------------0M------|

--------------------------------------------------------------------------------|
--------------------------------------------------------------------------------|
--------------------------------------------------------------------------------|
--0.----------------------------------------------------0-----------------------|
--0.----------------------------------0M----------------0-----------------0M----|
--0.----------------------------------0M----------------0-----------------0M----|

--------------------------------------------------------------------|
--------------------------------------------------------------------|
--------------------------------------------------------------------|
--------------------------------------------------------------------|
---0M----------------0M-------0M------------------------------------|
---0M----------------0M-------0M----------------0M----0M----0M------|

----------------------------|
-----3----------------------|
-----6----------------------|
--------------0-------------|
--0M----0M-0M-0--0M----0M---|
--0M----0M-0M-0--0M----0M---|

----------------------------------------------------|
--------4-------------------------------------------|
--------7-------------------------------------------|
----------------------------------------------------|
--0M----------0M-0M-------0M-0M-0M-0M-3M-3M-3M-3M---|
--0M----------0M-0M-------0M-0M-0M-0M-3M-3M-3M-3M---|

----------------------------|
----------------------------|
----------------------------|
----------------------------|
--1M------------------------|
--1M------------------------|

----------------------------------------------------|
----------------------------------------------------|
----------------------------------------------------|
--1--------1--------1-----1--------1--------1-------|
--1--------1--------1-----1--------1--------1-------|
--1--------1--------1-----1--------1--------1-------|

----------------------------------------------------|
----------------------------------------------------|
----------------------------------------------------|
--1--------1--------1-----3--------3--------3-------|
--1--------1--------1-----3--------3--------3-------|
--1--------1--------1-----3--------3--------3-------|

----------------------------------------------------|
----------------------------------------------------|
----------------------------------------------------|
--5--------5--------5-----5--------5--------5-------|
--5--------5--------5-----5--------5--------5-------|
--5--------5--------5-----5--------5--------5-------|

----------------------------------------------------|
----------------------------------------------------|
----------------------------------------------------|
--5--------5--------5-----7--------7--------7-------|
--5--------5--------5-----8--------8--------8-------|
--5--------5--------5-----7--------7--------7-------|

----------------------------------------------------|
----------------------------------------------------|
----------------------------------------------------|
--1--------1--------1-----1--------1--------1-------|
--1--------1--------1-----1--------1--------1-------|
--1--------1--------1-----1--------1--------1-------|

----------------------------------------------------|
----------------------------------------------------|
----------------------------------------------------|
--1--------1--------1-----3--------3--------3-------|
--1--------1--------1-----3--------3--------3-------|
--1--------1--------1-----3--------3--------3-------|

----------------------------------------------------|
----------------------------------------------------|
----------------------------------------------------|
--5--------5--------5-----5--------5--------5-------|
--5--------5--------5-----5--------5--------5-------|
--5--------5--------5-----5--------5--------5-------|

----------------------------------------------------|
----------------------------------------------------|
----------------------------------------------------|
--5--------5--------5-----7--------7--------7-------|
--5--------5--------5-----8--------8--------8-------|
--5--------5--------5-----7--------7--------7-------|

----------------------------------------------------|
----------------------------------------------------|
----------------------------------------------------|
--1--------1--------1-----1--------1--------1-------|
--1--------1--------1-----1--------1--------1-------|
--1--------1--------1-----1--------1--------1-------|

----------------------------------------------------|
----------------------------------------------------|
----------------------------------------------------|
--1--------1--------1-----1--------1--------1-------|
--1--------1--------1-----1--------1--------1-------|
--1--------1--------1-----1--------1--------1-------|

----------------------------------------------------|
----------------------------------------------------|
----------------------------------------------------|
--5--------5--------5-----5--------5--------5-------|
--5--------5--------5-----5--------5--------5-------|
--5--------5--------5-----5--------5--------5-------|

----------------------------------------------------|
----------------------------------------------------|
----------------------------------------------------|
--5--------5--------5-----7--------7--------7-------|
--5--------5--------5-----8--------8--------8-------|
--5--------5--------5-----7--------7--------7-------|

----------------------------------------------------|
----------------------------------------------------|
----------------------------------------------------|
--1--------1--------1-----1--------1--------1-------|
--1--------1--------1-----1--------1--------1-------|
--1--------1--------1-----1--------1--------1-------|

----------------------------------------------------|
----------------------------------------------------|
----------------------------------------------------|
--1--------1--------1-----1--------1--------1-------|
--1--------1--------1-----1--------1--------1-------|
--1--------1--------1-----1--------1--------1-------|

----------------------------------------------------|
----------------------------------------------------|
----------------------------------------------------|
--5--------5--------5-----5--------5--------5-------|
--5--------5--------5-----5--------5--------5-------|
--5--------5--------5-----5--------5--------5-------|

----------------------------------------------------|-------|-------|-------|
----------------------------------------------------|-------|-------|-------|
----------------------------------------------------|-------|-------|-------|
--5--------5--------5-----3--------3--------3-------|--0L---|--0L---|--0L---|
--5--------5--------5-----3--------3--------3-------|--1L---|--1L---|--1L---|
--5--------5--------5-----3--------3--------3-------|--1L---|--1L---|--1L---|

-------|-------|-------||
-------|-------|-------||
-------|-------|-------||
--0L---|--0L---|--0----||
--1L---|--1L---|--1----||
--1L---|--1L---|--1----||
 
 
Memphis May Fire - The Victim Tab :: indexed at Ultimate Guitar.
The Victim tabs @ 911Tabs
People who played Memphis May Fire - The Victim Tab also played these songs by Memphis May Fire:
Miles Away Chords, No Ordinary Love Chords, Speechless Chords, Miles Away Tab, Miles Away Chords, Cowbells Makin A Comeback Tab

Quick tip, so you can enjoy The Victim Tab even more:

You might want to transpose the song if it is too high or too low for you to sing. Just click the desired option while playing a song and all the chords will automatically be transponded into a new key.

Show us your talent, perform The Victim Tab!

Here you can post a video or audio performance. Tell me more ...
Where can we find your performance? Tell me more ...
Your comment:
Please, log in to post your performance.