Artists by letter: A B C D E F G H I J K L M N O P Q R S T U V W X Y Z 0-9

 
The Unfaithful Tab
Title: The Unfaithful
Artist: Memphis May Fire
Album: The Hollow
Words: Memphis May Fire
Music: Memphis May Fire
Copyright: Memphis May Fire

Legend
L - tied note
x - dead note
h - hammer on/pull off
b - bend
s - slide
~ - vibrato
g - ghost note
> - accentuated note
t - trill
M - palm mute
. - staccato
P - popping (bass)
S - slapping (bass)
+ - tapping
W - wide vibrato
< - fade in
w - whammy bar
= - tremolo picking
v - brush up
^ - brush down
V - pick stroke up
n - pick stroke down

D#|----------------------------|----------------------------|
A#|----------------------------|----------------------------|
F#|----------------------------|----------------------------|
C#|--3.-3.-3.-3.-3.-3.-3.-3.---|--3--3--3--3--3--3--3--3----|
G#|--3.-3.-3.-3.-3.-3.-3.-3.---|--3--3--3--3--3--3--3--3----|
C#|--3.-3.-3.-3.-3.-3.-3.-3.---|--3--3--3--3--3--3--3--3----|

----------------------------|----------------------------|
----------------------------|----------------------------|
----------------------------|----------------------------|
----------------------------|----------------------------|
--0--0--0--0--0--0--0--0----|--3--3--3--3--3--3--3--3----|
--2--2--2--2--2--2--2--2----|--5--5--5--5--5--5--5--5----|

----------------------------|----------------------------|
----------------------------|----------------------------|
----------------------------|----------------------------|
----------------------------|--3--3--3--3--3--3--3--3----|
--2--2--2--2--2--2--2--2----|--3--3--3--3--3--3--3--3----|
--5--5--5--5--5--5--5--5----|--3--3--3--3--3--3--3--3----|

----------------------------|----------------------------|
----------------------------|----------------------------|
----------------------------|----------------------------|
----------------------------|----------------------------|
--0--0--0--0--0--0--0--0----|--3--3--3--3--3--3--3--3----|
--2--2--2--2--2--2--2--2----|--5--5--5--5--5--5--5--5----|

----------------------------------------------------|
----------------------------------------------------|
----------------------------------------------------|
----------------------------------------------------|
--2M-2M-2M-2M-2M-2M-2M-2M-2M-2M-2M-2M-2M-2M-2M-2M---|
--5M-5M-5M-5M-5M-5M-5M-5M-5M-5M-5M-5M-5M-5M-5M-5M---|

----------------------------|----------------------------|
----------------------------|----------------------------|
----------------------------|----------------------------|
----------------------------|-----------------3--2L-2----|
--0--------------3----------|--0--------------------3----|
-----------------------6----|-----3--2--0----------------|

----------------------------------------------------|
----------------------------------------------------|
----------------------------------------------------|
----------------------------------------------------|
--------0-----0-----0-----0-------------------------|
--2M----------------------------2M----2M-2M-5-------|

----------------------------|----------------------------|----------------|
----------------------------|----------------------------|----------------|
----------------------------|----------------------------|----------------|
----------------------------|----------------------------|----------------|
----------------------------|--0--------------3----------|--0-------------|
--5--5--3--3--3--3--3--3----|-----------------------6----|-----3--2--0----|

----------------------------|----------------------------|
----------------------------|----------------------------|
----------------------------|----------------------------|
-----------------3-----2----|----------------------------|
-----------3----------------|--0-------------------------|
-----6----------------------|--2-----2M----2M-2M---------|

----------------------------|
--------------1-----0-------|
--------0s------------------|
--------0s-0--3-----2-------|
-----------0----------------|
-----2M----------2M----2M---|

----------------------------------------------------|
----------------------------------------------------|
----------------------------------------------------|
----------------------------------------------------|
----------------------------------------------------|
--2M----2M----2M-2M-2M-2M-2M----5M----2M----5M------|

----------------------------|
----------------------------|
----------------------------|
-----------------3L-3--3----|
--0M----------------5L-5----|
-----3M-2M-0M-2M------------|

----------------------------------------------------|
----------------------------------------------------|
----------------------------------------------------|
----------------------------------------------------|
----------------------------------------------------|
--2M-2M-2M----2M----2M----2M----2M-2M-2M----2M------|

----------------------------|----------------------------|
----------------------------|----------------------------|
----------------------------|----------------------------|
----------------------------|--3--------3-----------2----|
----------------------------|----------------------------|
--2M-2M-2M-5----------------|-----2M-2M----2M-2M-2M------|

----------------------------------------|----------------------------|
----------------------------------------|----------------------------|
----------------------------------------|----------------------------|
-----------------0----------------------|--0--------0----------------|
--------------3h----------3-------------|-----------------------3----|
--2M----2M----------2M----------2M------|-----2M-2M----2M-2M-2M------|

----------------------------------------------------------|
----------------------------------------------------------|
----------------------------------------------------------|
----------------------------------------------------------|
--------------------2h----3h----2-----0-------------------|
--2M-------2M---------------------------------------------|

----------------------------|----------------------------------------|
----------------------------|----------------------------------------|
----------------------------|----------------------------------------|
--3--------3-----------2----|-----------------0----------------------|
----------------------------|--------------3h----------3-------------|
-----2M-2M----2M-2M-2M------|--2M----2M----------2M----------2M------|

----------------------|
----------------------|
----------------------|
--0--------0----------|
----------------------|
-----2M-2M----2M-2M---|

----------------------------------------------------------|
----------------------------------------------------------|
----------------------------------------------------------|
----------------------------------------------------------|
-----------3--------------------------2h----3h----2-------|
--2M----------------2M-------2M---------------------------|

----------------------------|----------------------------|
----------------------------|----------------------------|
----------------------------|----------------------------|
----------------------------|--3--3--3--3--3--3--3--3----|
--3--3--3--3--3--2--2--2----|--3--3--3--3--3--3--3--3----|
----------------------------|--3--3--3--3--3--3--3--3----|

----------------------------|----------------------------|
----------------------------|----------------------------|
----------------------------|----------------------------|
----------------------------|----------------------------|
--0--0--0--0--0--0--0--0----|--3--3--3--3--3--3--3--3----|
--2--2--2--2--2--2--2--2----|--5--5--5--5--5--5--5--5----|

----------------------------|----------------------------|
----------------------------|----------------------------|
----------------------------|----------------------------|
----------------------------|--3--3--3--3--3--3--3--3----|
--2--2--2--2--2--2--2--2----|--3--3--3--3--3--3--3--3----|
--5--5--5--5--5--5--5--5----|--3--3--3--3--3--3--3--3----|

----------------------------|----------------------------|
----------------------------|----------------------------|
----------------------------|----------------------------|
----------------------------|----------------------------|
--0--0--0--0--0--0--0--0----|--3--3--3--3--3--3--3--3----|
--2--2--2--2--2--2--2--2----|--5--5--5--5--5--5--5--5----|

----------------------------|----------------------------|
----------------------------|----------------------------|
----------------------------|----------------------------|
----------------------------|--3--3--3--3--3--3--3--3----|
--2--2--2--2--2--2--2--2----|--3--3--3--3--3--3--3--3----|
--5--5--5--5--5--5--5--5----|--3--3--3--3--3--3--3--3----|

----------------------------|----------------------------|
----------------------------|----------------------------|
----------------------------|----------------------------|
----------------------------|----------------------------|
--0--0--0--0--0--0--0--0----|--3--3--3--3--3--3--3--3----|
--2--2--2--2--2--2--2--2----|--5--5--5--5--5--5--5--5----|

----------------------------|----------------------------|
----------------------------|----------------------------|
----------------------------|----------------------------|
----------------------------|--3--3--3--3--3--3--3--3----|
--2--2--2--2--2--2--2--2----|--3--3--3--3--3--3--3--3----|
--5--5--5--5--5--5--5--5----|--3--3--3--3--3--3--3--3----|

----------------------------|----------------------------|
----------------------------|----------------------------|
----------------------------|----------------------------|
--3--3--3--3--3--3--3--3----|----------------------------|
--3--3--3--3--3--3--3--3----|--0--0--0--0--0--0--0--0----|
--3--3--3--3--3--3--3--3----|--2--2--2--2--2--2--2--2----|

----------------------------|-------|-------|----------------------------|
----------------------------|-------|-------|----------------------------|
----------------------------|-------|-------|----------------------------|
----------------------------|-------|-------|----------------------------|
--0--0M-0M-0M-0M-2M-2M-2M---|-------|-------|----------------------------|
--2--0M-0M-0M-0M-2M-2M-2M---|-------|-------|-----2M-2M-2M----2M-2M-2M---|

----------------------------|
----------------------------|
----------------------------|
----------------------------|
----------------------------|
-----2M-2M------------------|

----------------------------------------------------|
----------------------------------------------------|
----------------------------------------------------|
----------------------------------------------------|
----------------------------------------------------|
----------------------------------------------------|

----------------------------------------------------|
----------------------------------------------------|
----------------------------------------------------|
--------------------------------------3--3--3-------|
--------------------------3--3--3-------------------|
--------------6--6--6-------------------------------|

----------------------------|----------------------------|
----------------------------|----------------------------|
----------------------------|----------------------------|
----------------------------|----------------------------|
----------------------------|----------------------------|
-----2M-2M-2M----2M-2M-2M---|-----2M-2M------------------|

----------------------------------------------------|
----------------------------------------------------|
----------------------------------------------------|
----------------------------------------------------|
----------------------------------------------------|
----------------------------------------------------|

----------------------------------------------------|
----------------------------------------------------|
----------------------------------------------------|
--------------------------------------3--3--3-------|
--------------------------3--3--3-------------------|
--------------6--6--6-------------------------------|

----------------------------------------------------|
----------------------------------------------------|
----------------------------------------------------|
----------------------------------------------------|
----------------------------------------------------|
--2M----2M----2M-2M-2M----2M-2M-2M----2M----2M-2M---|

--------------------------------------------------------------------------------|
--------------------------------------------------------------------------------|
--------------------------------------------------------------------------------|
--------------------------------------------------------------------------------|
--------------------------------------------------------------------------------|
--2M----------------------------------------------------2M----2M----2M----2.----|

--------------------------------------------------------------------|
--------------------------------------------------------------------|
--------------------------------------------------------------------|
--------------------------------------------------------------------|
--------------------------------------------------------------------|
--------------------------------------------------------------------|

----------------------------------------------------|
----------------------------------------------------|
----------------------------------------------------|
----------------------------------------------------|
----------------------------------------------------|
--------2M----2M-2M-2M------------------------------|

----------------------------------------------------------------------------|
----------------------------------------------------------------------------|
----------------------------------------------------------------------------|
----------------------------------------------------------------------------|
-----------------------------------------------------------------3L---------|
-----------2M-------2M-------2M-2M-2M-2M-------------------------3L---------|

----------------------------------------------------|
----------------------------------------------------|
----------------------------------------------------|
----------------------------------------------------|
--3-------------------------------------------------|
--3-----2M----2M-2M-2M----2M-2M-2M----2M----2M-2M---|

----------------------------------------------------------------------------|
----------------------------------------------------------------------------|
----------------------------------------------------------------------------|
----------------------------------------------------------------------------|
----------------------------------------------------------------------------|
--2M----------------2M-------2M-2M-2M-2.------------------------------------|

----------------------------------------------------|
----------------------------------------------------|
----------------------------------------------------|
----------------------------------------------------|
----------------------------------------------------|
--------2M----2M-2M-2M------------------------------|

----------------------------------------------------|
----------------------------------------------------|
--2-----1h-2----------------------------------------|
--------------2-----------0-------------------------|
--------------------------------------3-------------|
----------------------------------------------------|

----------------------------------------------------|
----------------------------------------------------|
----------------------------------------------------|
----------------------------------------------------|
----------------------------------------------------|
--2M----2M----2M-2M-2M----2M-2M-2M----2M----2M-2M---|

--------------------------------------------------------------------------------|
--------------------------------------------------------------------------------|
--------------------------------------------------------------------------------|
--------------------------------------------------------------------------------|
--------------------------------------------------------------------------------|
--2M----------------------------------------------------2M----2M----2M----2.----|

--------------------------------------------------------------------|
--------------------------------------------------------------------|
--------------------------------------------------------------------|
--------------------------------------------------------------------|
--------------------------------------------------------------------|
--------------------------------------------------------------------|

----------------------------------------------------|
----------------------------------------------------|
----------------------------------------------------|
----------------------------------------------------|
----------------------------------------------------|
--------2M----2M-2M-2M------------------------------|

----------------------------------------------------------------------------|
----------------------------------------------------------------------------|
----------------------------------------------------------------------------|
----------------------------------------------------------------------------|
-----------------------------------------------------------------3L---------|
-----------2M-------2M-------2M-2M-2M-2M-------------------------3L---------|

----------------------------------------------------|
----------------------------------------------------|
----------------------------------------------------|
----------------------------------------------------|
--3-------------------------------------------------|
--3-----2M----2M-2M-2M----2M-2M-2M----2M----2M-2M---|

----------------------------------------------------------------------------|
----------------------------------------------------------------------------|
----------------------------------------------------------------------------|
----------------------------------------------------------------------------|
----------------------------------------------------------------------------|
--2M----------------2M-------2M-2M-2M-2.------------------------------------|

----------------------------------------------------|
----------------------------------------------------|
----------------------------------------------------|
----------------------------------------------------|
----------------------------------------------------|
--------2M----2M-2M-2M------------------------------|

----------------------------|----------------------------|
----------------------------|----------------------------|
----------------------------|----------------------------|
----------------------------|----------------------------|
----------------------------|----------------------------|
--------------------2--2----|--3--3--3--3--3--3--3--2----|

----------------------------|----------------------------|
----------------------------|----------------------------|
----------------------------|----------------------------|
----------------------------|----------------------------|
----------------------------|--3--3--3--3--3--3--3--3----|
--2-------------------------|--5--5--5--5--5--5--5--5----|

----------------------------|----------------------------|
----------------------------|----------------------------|
----------------------------|----------------------------|
----------------------------|--3--3--3--3--3--3--3--3----|
--2--2--2--2--2--2--2--2----|--3--3--3--3--3--3--3--3----|
--5--5--5--5--5--5--5--5----|--3--3--3--3--3--3--3--3----|

----------------------------|----------------------------|
----------------------------|----------------------------|
----------------------------|----------------------------|
----------------------------|----------------------------|
--0--0--0--0--0--0--0--0----|--3--3--3--3--3--3--3--3----|
--2--2--2--2--2--2--2--2----|--5--5--5--5--5--5--5--5----|

----------------------------|----------------------------|
----------------------------|----------------------------|
----------------------------|----------------------------|
----------------------------|--3--3--3--3--3--3--3--3----|
--2--2--2--2--2--2--2--2----|--3--3--3--3--3--3--3--3----|
--5--5--5--5--5--5--5--5----|--3--3--3--3--3--3--3--3----|

----------------------------|----------------------------|
----------------------------|----------------------------|
----------------------------|----------------------------|
----------------------------|----------------------------|
--0--0--0--0--0--0--0--0----|--3--3--3--3--3--3--3--3----|
--2--2--2--2--2--2--2--2----|--5--5--5--5--5--5--5--5----|

----------------------------|----------------------------|
----------------------------|----------------------------|
----------------------------|----------------------------|
----------------------------|--3--3--3--3--3--3--3--3----|
--2--2--2--2--2--2--2--2----|--3--3--3--3--3--3--3--3----|
--5--5--5--5--5--5--5--5----|--3--3--3--3--3--3--3--3----|

----------------------------|----------------------------|
----------------------------|----------------------------|
----------------------------|----------------------------|
--3--3--3--3--3--3--3--3----|----------------------------|
--3--3--3--3--3--3--3--3----|--0--0--0--0--0--0--0--0----|
--3--3--3--3--3--3--3--3----|--2--2--2--2--2--2--2--2----|

----------------------------|----------|
----------------------------|----------|
----------------------------|-----2s---|
----------------------------|-----2s---|
--0--0M-0M-0M-0M-2M-2M-2M---|--0--0s---|
--2--0M-0M-0M-0M-2M-2M-2M---|--2-------|

----------------------------------------------------|
----------------------------------------------------|
----------------------------------------------------|
--------2h-3--2-----0-------------------------------|
--------------------------3-----0-----------2h-3----|
--------------------------------------3M------------|

----------------------------|
----------------------------|
----------------------------|
----------------------------|
--2-----------------0--0----|
-----5--2--------2----------|

----------------------------------------------------|
----------------------------------------------------|
--------------------------------------------2s-0----|
--------0s----0-----3-----2-------------------------|
-----------3--------------------3-------------------|
--0M----------------------------------3M------------|

--------------------------------------------------------------1s-3-----------1--|
--------------1-----------0-----------------------------------------------------|
--2-----------------------------------0M----------------------------------------|
--------------------------------------------------2-----------------------------|
--------------------------------------------------------------------------------|
--------------------------------------------------------------------------------|

-----------------------|----------------------------------------------------|
-----------------------|----------------------------------------------------|
---------2-------------|----------------------------------------------------|
-----------------------|--------2h-3--2-----0-------------------------------|
-----------------------|--------------------------3-----0-----------2h-3----|
-----------------------|--------------------------------------3M------------|

----------------------------|
----------------------------|
----------------------------|
----------------------------|
--2-----------------0--0----|
-----5--2--------2----------|

----------------------------------------------------|
----------------------------------------------------|
--------------------------------------------2s-0----|
--------0s----0-----3-----2-------------------------|
-----------3--------------------3-------------------|
--0M----------------------------------3M------------|

-----------------3s-5--8----|
-----1--0-------------------|
--2--------0----------------|
--------------2-------------|
----------------------------|
----------------------------|

----------------------------------------------------|
----------------------------------------------------|
----------------------------------------------------|
--------2h-3--2-----0-------------------------------|
--------------------------3-----0-----------2h-3----|
--------------------------------------3M------------|

----------------------------|
----------------------------|
----------------------------|
----------------------------|
--2-----------------0--0----|
-----5--2--------2----------|

----------------------------------------------------|
----------------------------------------------------|
--------------------------------------------2s-0----|
--------0s----0-----3-----2-------------------------|
-----------3--------------------3-------------------|
--0M----------------------------------3M------------|

--------------------------------------------------------------1s-3-----------1--|
--------------1-----------0-----------------------------------------------------|
--2-----------------------------------0M----------------------------------------|
--------------------------------------------------2-----------------------------|
--------------------------------------------------------------------------------|
--------------------------------------------------------------------------------|

-----------------------|----------------------------------------------------|
-----------------------|----------------------------------------------------|
---------2-------------|----------------------------------------------------|
-----------------------|--------2h-3--2-----0-------------------------------|
-----------------------|--------------------------3-----0-----------2h-3----|
-----------------------|--------------------------------------3M------------|

----------------------------|
----------------------------|
----------------------------|
----------------------------|
--2-----------------0--0----|
-----5--2--------2----------|

----------------------------------------------------|
----------------------------------------------------|
--------------------------------------------2s-0----|
--------0s----0-----3-----2-------------------------|
-----------3--------------------3-------------------|
--0M------------------------------------------------|

--------0-------------------------------------------|
--------------3-----0-------------------------------|
--2-------------------------------------------------|
--------------------------------------------2h-0----|
----------------------------------------------------|
----------------------------------------------------|

----------------------------------------------------|
----------------------------------------------------|
----------------------------------------------------|
--2-----------------------------0h----0-------------|
-----------------------------------3----------------|
----------------------------------------------------|

----------------------------------------------------|
----------------------------------------------------|
----------------------------------------------------|
--------------------------------------------3h-2----|
--------3h-2--3-------------------------------------|
--------------------------2-----5--5--5-------------|

----------------------------------------------------|
----------------------------------------------------|
----------------------------------------------------|
--3-----------------------------2h-0--2-------------|
----------------------------------------------------|
----------------------------------------------------|

----------------------------------------------------|
----------------------------------------------------|
--------2h-0--2-----------0h------------------------|
--------------------------------3h----2-----2h-0----|
-----------------------------0-----0----------------|
----------------------------------------------------|

----------------------------------------------------|
----------------------------------------------------|
----------------------------------------------------|
--2-----------------------------0h----0-------------|
-----------------------------------3----------------|
----------------------------------------------------|

----------------------------------------------------|
----------------------------------------------------|
----------------------------------------------------|
--------------------------------------------3h-2----|
--------3h-2--3-------------------------------------|
--------------------------2-----5--5--5-------------|

----------------------------------------------------|
----------------------------------------------------|
----------------------------------------------------|
--3-----------------------------2h-0--2-------------|
----------------------------------------------------|
----------------------------------------------------|

----------------------------------------------------|
----------------------------------------------------|
--------0.-0.-2.-2.---------------------------------|
----------------------------------------------------|
----------------------------------------------------|
----------------------------------------------------|

----------------------------|----------------------------|
----------------------------|----------------------------|
--2--2--2-----2L------------|--2--------------2----------|
--2--2--2-----2L------------|--2--------------2-----3L---|
--0--0--0-----0L------------|--0-----------0M-0--0M-3L---|
----------------------------|-----------------------3L---|

----------------------------|----------------------------|----------------|
----------------------------|----------------------------|----------------|
----------------------------|----------------------------|----------------|
--3--3--3-----3L------------|--3--------------2-----0L---|--0--0--0L------|
--3--3--3-----3L------------|--3--------------2-----0L---|--0--0--0L------|
--3--3--3-----3L------------|--3-----------2M-2--2M-0L---|--0--0--0L------|

----------------------------|----------------|----------------------------|
----------------------------|----------------|----------------------------|
----------------------------|----------------|-----------------0----------|
--0--------------0-----2L---|--2--2--2L------|--2--------------0-----7L---|
--0--------------0-----2L---|--2--2--2L------|--2--------------------7L---|
--0-----------0M-0--0M-2L---|--2--2--2L------|--2-----------2M-5--5M-7L---|

----------------------------|----------------------------|
----------------------------|----------------------------|
----------------------------|----------------------------|
--7--7--7-----7L------------|--7--------------7----------|
--7--7--7-----7L------------|--7--------------7-----8L---|
--7--7--7-----7L------------|--7-----------7M-7--7M-10L--|

----------------------------|----------------------------|----------------|
----------------------------|----------------------------|----------------|
----------------------------|----------------------------|----------------|
----------------------------|-----------------2-----0L---|--0--0--0L------|
--8--8--8-----8L------------|--8--------------2-----0L---|--0--0--0L------|
--10-10-10----10L-----------|--10----------2M-2--2M-0L---|--0--0--0L------|

----------------------------|----------------|----------------------------|
----------------------------|----------------|----------------------------|
----------------------------|----------------|----------------------------|
--0--------------0-----2L---|--2--2--2L------|--2-------------------------|
--0--------------0-----2L---|--2--2--2L------|--2--------------3--2--0----|
--0-----------0M-0--0M-2L---|--2--2--2L------|--2-------------------------|

----------------------------|----------------------------|
----------------------------|----------------------------|
--2-----2-------------------|-----------------2-----2----|
--2-----2--2M-2M-2M-2M-2M---|--2M-2M-2M-2M-2M-2-----2----|
--0--0M-0--0M-0M-0M-0M-0M---|--0M-0M-0M-0M-0M-0--0M-0----|
----------------------------|----------------------------|

----------------------------|----------------------------|
----------------------------|----------------------------|
----------------------------|----------------------------|
--3-------------------------|-----------------2-----2----|
--3--3M-3M-3M-3M-3M-3M-3M---|--3M-3M-3M-3M-2M-2-----2----|
--3--3M-3M-3M-3M-3M-3M-3M---|--3M-3M-3M-3M-2M-2--2M-2----|

----------------------------|----------------------------|
----------------------------|----------------------------|
----------------------------|----------------------------|
--0-------------------------|-----------------0-----0----|
--0--0M-0M-0M-0M-0M-0M-0M---|--0M-0M-0M-0M-0M-0-----0----|
--0--0M-0M-0M-0M-0M-0M-0M---|--0M-0M-0M-0M-0M-0--0M-0----|

----------------------------|----------------------------|-------|-------|
----------------------------|----------------------------|-------|-------|
----------------------------|----------------------------|-------|-------|
--2-------------------------|-----------------2----------|-------|-------|
--2--2M-2M-2M-2M-2M-2M-2M---|--2M-2M-2M-2M-2M-2-----0L---|--0L---|--0L---|
--2--2M-2M-2M-2M-2M-2M-2M---|--2M-2M-2M-2M-2M-2--2M-2L---|--2L---|--2L---|

-------|-------|-------|-------|-------|-------|-------|-------||
-------|-------|-------|-------|-------|-------|-------|-------||
-------|-------|-------|-------|-------|-------|-------|-------||
-------|-------|-------|-------|-------|-------|-------|-------||
--0----|-------|-------|-------|-------|-------|-------|-------||
--2----|-------|-------|-------|-------|-------|-------|-------||
 
 
Memphis May Fire - The Unfaithful Tab :: indexed at Ultimate Guitar.
The Unfaithful tabs @ 911Tabs
People who played Memphis May Fire - The Unfaithful Tab also played these songs by Memphis May Fire:
Miles Away Chords, No Ordinary Love Chords, Speechless Chords, Miles Away Tab, Miles Away Chords, Cowbells Makin A Comeback Tab

Quick tip, so you can enjoy The Unfaithful Tab even more:

If you spend just 10 seconds to register, you will be able to comment on all the chords and tabs and rate them. You will as well be able to comment on videos of your fellow guitarists and give them ratings from 1 to 5 ... And - of course - you can share your own videos with them and see what they think of you. :)
Click here to join us!

Show us your talent, perform The Unfaithful Tab!

Here you can post a video or audio performance. Tell me more ...
Where can we find your performance? Tell me more ...
Your comment:
Please, log in to post your performance.