Artists by letter: A B C D E F G H I J K L M N O P Q R S T U V W X Y Z 0-9

 
The Abandoned Tab
Title: The Abandoned
Artist: Memphis May Fire
Album: The Hollow
Words: Memphis May Fire
Music: Memphis May Fire
Copyright: Memphis May Fire

Tuning - Drop G (G#-D#-G#-C#-F-A#)
Legend
L - tied note
x - dead note
h - hammer on/pull off
b - bend
s - slide
~ - vibrato
g - ghost note
> - accentuated note
t - trill
M - palm mute
. - staccato
P - popping (bass)
S - slapping (bass)
+ - tapping
W - wide vibrato
< - fade in
w - whammy bar
= - tremolo picking
v - brush up
^ - brush down
V - pick stroke up
n - pick stroke down

A#|----------------|----------------|----------------|----------------|
F |----------------|----------------|----------------|----------------|
C#|----------------|----------------|----------------|----------------|
G#|----------------|----------------|----------------|----------------|
D#|----------------|----------------|----------------|----------------|
G#|----------------|----------------|----------------|----------------|

----------------------------------------------------|
----------------------------------------------------|
----------------------------------------------------|
----------------------------------------------------|
--0.----------------------------0--------0----------|
--0.----------------------------0-----0M-0-----0M---|

--------------------------------------------------------------------------------|
--------------------------------------------------------------------------------|
--------------------------------------------------------------------------------|
--------------------------------------------------------------------------------|
--0.----------------------------------------------------------0-----------------|
--0.----------------------------------------------------------0-----------0M-0M-|

--------------------|----------------------------------------------------|
--------------------|----------------------------------------------------|
--------------------|----------------------------------------------------|
--------------------|----------------------------------------------------|
------------0M------|--0.----------------------------0--------0----------|
0M----------0M------|--0.----------------------------0-----0M-0-----0M---|

----------------------------------------------------|
----------------------------------------------------|
----------------------------------------------------|
----------------------------------------------------|
--0.----------------------------0--0--0--0--0--0----|
--0.----------------------------0--0--0--0--0--0----|

----------------------------------------------------|
----------------------------------------------------|
----------------------------------------------------|
----------------------------------------------------|
--0.----------------------------0--------0----------|
--0.----------------------------0-----0M-0-----0M---|

--------------------------------------------------------------------------------|
--------------------------------------------------------------------------------|
--------------------------------------------------------------------------------|
--------------------------------------------------------------------------------|
--0.----------------------------------------------------------0-----------------|
--0.----------------------------------------------------------0-----------0M-0M-|

--------------------|----------------------------------------------------|
--------------------|----------------------------------------------------|
--------------------|----------------------------------------------------|
--------------------|----------------------------------------------------|
--------------------|--------------------------------0--------0----------|
0M----------0M-0M---|--0M----------------------------0-----0M-0-----0M---|

--------------------------------------------------------------------------------|
--------------------------------------------------------------------------------|
--------------------------------------------------------------------------------|
--------------------------------------------------------------------------------|
--0.----------------------------------------------------------------------------|
--0.----------------------------------------------------------0-----0-----0-----|

--------------------|----------------------------------------------------|
--------------------|----------------------------------------------------|
--------------------|----------------------------------------------------|
--------------------|----------------------------------------------------|
--------------------|--0.----------------------------0--------0----------|
0-----0M-0M-0M-0M---|--0.----------------------------0-----0M-0-----0M---|

--------------------------------------------------------------------------------|
--------------------------------------------------------------------------------|
--------------------------------------------------------------------------------|
--------------------------------------------------------------------------------|
--0.----------------------------------------------------------0-----------------|
--0.----------------------------------------------------------0-----------0M-0M-|

--------------------|----------------------------------------------------|
--------------------|----------------------------------------------------|
--------------------|----------------------------------------------------|
--------------------|----------------------------------------------------|
------------0M------|--0.----------------------------0--------0----------|
0M----------0M------|--0.----------------------------0-----0M-0-----0M---|

----------------------------------------------------|
----------------------------------------------------|
----------------------------------------------------|
----------------------------------------------------|
--0.----------------------------0--0--0--0--0--0----|
--0.----------------------------0--0--0--0--0--0----|

----------------------------------------------------|
----------------------------------------------------|
----------------------------------------------------|
----------------------------------------------------|
--0.----------------------------0--------0----------|
--0.----------------------------0-----0M-0-----0M---|

--------------------------------------------------------------------------------|
--------------------------------------------------------------------------------|
--------------------------------------------------------------------------------|
--------------------------------------------------------------------------------|
--0.----------------------------------------------------------0-----------------|
--0.----------------------------------------------------------0-----------0M-0M-|

--------------------|----------------------------------------------------|
--------------------|----------------------------------------------------|
--------------------|----------------------------------------------------|
--------------------|----------------------------------------------------|
--------------------|--------------------------------0--------0----------|
0M----------0M-0M---|--0M----------------------------0-----0M-0-----0M---|

----------------------------------------------------|
----------------------------------------------------|
----------------------------------------------------|
----------------------------------------------------|
--0.----------------------0--0--0--0-----0--0-------|
--0.----------------------0--0--0--0-----0--0-------|

----------------------------------------------------|
----------------------------------------------------|
----------------------------------------------------|
--------7h-3--------------5-------------------------|
--0M-------------5h-8-----5-------------------------|
--0M----------------------5-------------------------|

----------------------------------------------------|
----------------------------------------------------|
--------------------------5-------------------------|
--------7h-10----5h-7-----5-------------------------|
--8M------------------------------------------------|
--8M------------------------------------------------|

----------------------------------------------------|
----------------------------------------------------|
----------------------------------------------------|
--------7h-3--------------5-------------------------|
--0M-------------5h-8-----5-------------------------|
--0M----------------------5-------------------------|

----------------------------|
----------------------------|
--------------------2L-2----|
--------2L-2-----3L-3--3----|
-----3L-3--3----------------|
--2L-2L-2L-2--0L-0L-0L-0----|

----------------------------------------------------|
----------------------------------------------------|
----------------------------------------------------|
--------7h-3--------------5-------------------------|
--0M-------------5h-8-----5-------------------------|
--0M----------------------5-------------------------|

----------------------------------------------------|
----------------------------------------------------|
--------------------------5-------------------------|
--------7h-10----5h-7-----5-------------------------|
--8M------------------------------------------------|
--8M------------------------------------------------|

----------------------------------------------------|
----------------------------------------------------|
----------------------------------------------------|
--------7h-3--------------5-------------------------|
--0M-------------5h-8-----5-------------------------|
--0M----------------------5-------------------------|

----------------------------|
----------------------------|
--2-----2--2--2--2--2.------|
--2-----2--2--2--2--2.------|
--0-----0--0--0--0--0.------|
----------------------------|

----------------------------------------------------|
----------------------------------------------------|
--7--7--7--7--------7--7--7-----7--7--7L----7s------|
--7--7--7--7--------7--7--7-----7--7--7L----7s------|
--5--5--5--5--------5--5--5-----5--5--5L----5s------|
----------------------------------------------------|

----------------------------------------------------|
----------------------------------------------------|
--5--5--5--5--------5--5--5-----5--5--5L----5s------|
--5--5--5--5--------5--5--5-----5--5--5L----5s------|
--3--3--3--3--------3--3--3-----3--3--3L----3s------|
----------------------------------------------------|

----------------------------------------------------|
----------------------------------------------------|
--3--------3--------3-----3-----------3-------------|
--3--------3--------3-----3-----------3-------------|
--1--------1--------1-----1-----------1-------------|
----------------------------------------------------|

----------------------------------------------------|
----------------------------------------------------|
--3--------3--------3-----3-----------3-------------|
--3--------3--------3-----3-----------3-------------|
--1--------1--------1-----1-----------1-------------|
----------------------------------------------------|

----------------------------------------------------|
----------------------------------------------------|
--7--7--7--7--------7--7--7-----7--7--7L----7s------|
--7--7--7--7--------7--7--7-----7--7--7L----7s------|
--5--5--5--5--------5--5--5-----5--5--5L----5s------|
----------------------------------------------------|

----------------------------------------------------|
----------------------------------------------------|
--5--5--5--5--------5--5--5-----5--5--5L----5s------|
--5--5--5--5--------5--5--5-----5--5--5L----5s------|
--3--3--3--3--------3--3--3-----3--3--3L----3s------|
----------------------------------------------------|

----------------------------------------------------|
----------------------------------------------------|
--3--------3--------3-----3-----------3-------------|
--3--------3--------3-----3-----------3-------------|
--1--------1--------1-----1-----------1-------------|
----------------------------------------------------|

----------------------------------------------------|
----------------------------------------------------|
--3--------3--------3-----3-----------3-------------|
--3--------3--------3-----3-----------3-------------|
--1--------1--------1-----1-----------1-------------|
----------------------------------------------------|

----------------------------------------------------|
----------------------------------------------------|
----------------------------------------------------|
--5--------5--------5-----5-----------5-------------|
--5--------5--------5-----5-----------5-------------|
--5--------5--------5-----5-----------5-------------|

----------------------------------------------------|
----------------------------------------------------|
----------------------------------------------------|
--3--------3--------3-----3-----------3-------------|
--3--------3--------3-----3-----------3-------------|
--3--------3--------3-----3-----------3-------------|

----------------------------------------------------|
----------------------------------------------------|
----------------------------------------------------|
--2--------2--------2-----2-----------2-------------|
--3--------3--------3-----3-----------3-------------|
--2--------2--------2-----2-----------2-------------|

----------------------------------------------------|
----------------------------------------------------|
----------------------------------------------------|
--0--------0--------0-----0-----------0-------------|
--0--------0--------0-----0-----------0-------------|
--0--------0--------0-----0-----------0-------------|

----------------------------------------------------|
----------------------------------------------------|
----------------------------------------------------|
--5--------5--------5-----5-----------5-------------|
--5--------5--------5-----5-----------5-------------|
--5--------5--------5-----5-----------5-------------|

----------------------------------------------------|
----------------------------------------------------|
----------------------------------------------------|
--3--------3--------3-----3-----------3-------------|
--3--------3--------3-----3-----------3-------------|
--3--------3--------3-----3-----------3-------------|

----------------------------------------------------|
----------------------------------------------------|
----------------------------------------------------|
--7--------7--------7-----7-----------7-------------|
--7--------7--------7-----7-----------7-------------|
--7--------7--------7-----7-----------7-------------|

----------------------------------------------------|
----------------------------------------------------|
----------------------------------------------------|
--7--------7--------7-----7-----------7-------------|
--7--------7--------7-----7-----------7-------------|
--7--------7--------7-----7-----------7-------------|

----------------------------------------------------|
----------------------------------------------------|
----------------------------------------------------|
----------------------------------------------------|
--0.-------------------------------------0--0-------|
--0.-------------------------------------0--0-------|

----------------------------------------------------|
----------------------------------------------------|
----------------------------------------------------|
----------------------------------------------------|
--0.----------------------------------------0M-0M---|
--0.----------------------------------------0M-0M---|

----------------------------------------------------|
----------------------------------------------------|
----------------------------------------------------|
----------------------------------------------------|
--0.-------------------------------------0--0-------|
--0.-------------------------------------0--0-------|

--------------------------------------------------------------------------------|
--------------------------------------------------------------------------------|
--------------------------------------------------------------------------------|
--------------------------------------------------------------------------------|
--0.----------------------------------------------------------------------------|
--0.----------------------------------------------------------------------0M----|

--------------------------------------------------------------------|
--------------------------------------------------------------------|
--------------------------------------------------------------------|
--------------------------------------------------------------------|
--------------------------------------------------------------------|
---0M-------0M-------0M-------0M----0M----0M----0M----0M----0M------|

----------------------------------------------------|
----------------------------------------------------|
----------------------------------------------------|
----------------------------------------------------|
--0.-------------------------------------0--0-------|
--0.-------------------------------------0--0-------|

----------------------------------------------------|
----------------------------------------------------|
----------------------------------------------------|
----------------------------------------------------|
--0.----------------------------------------0M-0M---|
--0.----------------------------------------0M-0M---|

----------------------------------------------------|
----------------------------------------------------|
----------------------------------------------------|
----------------------------------------------------|
--0.-------------------------------------0M-0M------|
--0.-------------------------------------0M-0M------|

----------------------------|
----------------------------|
----------------------------|
----------------------------|
--0M------------------------|
--0M------------------------|

----------------------------------------------------|
----------------------------------------------------|
----------------------------------------------------|
----------------------------------------------------|
--0.----------------------------0--------0----------|
--0.----------------------------0-----0M-0-----0M---|

--------------------------------------------------------------------------------|
--------------------------------------------------------------------------------|
--------------------------------------------------------------------------------|
--------------------------------------------------------------------------------|
--0.----------------------------------------------------------0-----------------|
--0.----------------------------------------------------------0-----------0M-0M-|

--------------------|----------------------------------------------------|
--------------------|----------------------------------------------------|
--------------------|----------------------------------------------------|
--------------------|----------------------------------------------------|
------------0M------|--0.----------------------------0--------0----------|
0M----------0M------|--0.----------------------------0-----0M-0-----0M---|

----------------------------------------------------|
----------------------------------------------------|
----------------------------------------------------|
----------------------------------------------------|
--0.----------------------------0--0--0--0--0--0----|
--0.----------------------------0--0--0--0--0--0----|

----------------------------------------------------|
----------------------------------------------------|
----------------------------------------------------|
----------------------------------------------------|
--0.----------------------------0--------0----------|
--0.----------------------------0-----0M-0-----0M---|

--------------------------------------------------------------------------------|
--------------------------------------------------------------------------------|
--------------------------------------------------------------------------------|
--------------------------------------------------------------------------------|
--0.----------------------------------------------------------0-----------------|
--0.----------------------------------------------------------0-----------0M-0M-|

--------------------|----------------------------------------------------|
--------------------|----------------------------------------------------|
--------------------|----------------------------------------------------|
--------------------|----------------------------------------------------|
--------------------|--------------------------------0--------0----------|
0M----------0M-0M---|--0M----------------------------0-----0M-0-----0M---|

----------------------------------------------------|
----------------------------------------------------|
--------------------------10----------5-------------|
-----------------0--0-----10----------5-------------|
--0M----0--0-----0--0-----8-----------3-------------|
--0M----0--0-----0--0-------------------------------|

----------------------------------------------------|
----------------------------------------------------|
--7--7--7--7--------7--7--7-----7--7--7L----7s------|
--7--7--7--7--------7--7--7-----7--7--7L----7s------|
--5--5--5--5--------5--5--5-----5--5--5L----5s------|
----------------------------------------------------|

----------------------------------------------------|
----------------------------------------------------|
--5--5--5--5--------5--5--5-----5--5--5L----5s------|
--5--5--5--5--------5--5--5-----5--5--5L----5s------|
--3--3--3--3--------3--3--3-----3--3--3L----3s------|
----------------------------------------------------|

----------------------------------------------------|
----------------------------------------------------|
--3--------3--------3-----3-----------3-------------|
--3--------3--------3-----3-----------3-------------|
--1--------1--------1-----1-----------1-------------|
----------------------------------------------------|

----------------------------------------------------|
----------------------------------------------------|
--3--------3--------3-----3-----------3-------------|
--3--------3--------3-----3-----------3-------------|
--1--------1--------1-----1-----------1-------------|
----------------------------------------------------|

----------------------------------------------------|
----------------------------------------------------|
--7--7--7--7--------7--7--7-----7--7--7L----7s------|
--7--7--7--7--------7--7--7-----7--7--7L----7s------|
--5--5--5--5--------5--5--5-----5--5--5L----5s------|
----------------------------------------------------|

----------------------------------------------------|
----------------------------------------------------|
--5--5--5--5--------5--5--5-----5--5--5L----5s------|
--5--5--5--5--------5--5--5-----5--5--5L----5s------|
--3--3--3--3--------3--3--3-----3--3--3L----3s------|
----------------------------------------------------|

----------------------------------------------------|
----------------------------------------------------|
--3--------3--------3-----3-----------3-------------|
--3--------3--------3-----3-----------3-------------|
--1--------1--------1-----1-----------1-------------|
----------------------------------------------------|

----------------------------------------------------|
----------------------------------------------------|
--3--------3--------3-----3-----------3-------------|
--3--------3--------3-----3-----------3-------------|
--1--------1--------1-----1-----------1-------------|
----------------------------------------------------|

----------------------------------------------------|
----------------------------------------------------|
----------------------------------------------------|
--5--------5--------5-----5-----------5-------------|
--5--------5--------5-----5-----------5-------------|
--5--------5--------5-----5-----------5-------------|

----------------------------------------------------|
----------------------------------------------------|
----------------------------------------------------|
--3--------3--------3-----3-----------3-------------|
--3--------3--------3-----3-----------3-------------|
--3--------3--------3-----3-----------3-------------|

----------------------------------------------------|
----------------------------------------------------|
----------------------------------------------------|
--2--------2--------2-----2-----------2-------------|
--3--------3--------3-----3-----------3-------------|
--2--------2--------2-----2-----------2-------------|

----------------------------------------------------|
----------------------------------------------------|
----------------------------------------------------|
--0--------0--------0-----0-----------0-------------|
--0--------0--------0-----0-----------0-------------|
--0--------0--------0-----0-----------0-------------|

----------------------------------------------------|
----------------------------------------------------|
----------------------------------------------------|
--5--------5--------5-----5-----------5-------------|
--5--------5--------5-----5-----------5-------------|
--5--------5--------5-----5-----------5-------------|

----------------------------------------------------|
----------------------------------------------------|
----------------------------------------------------|
--3--------3--------3-----3-----------3-------------|
--3--------3--------3-----3-----------3-------------|
--3--------3--------3-----3-----------3-------------|

----------------------------------------------------|
----------------------------------------------------|
----------------------------------------------------|
--7--------7--------7-----7-----------7-------------|
--7--------7--------7-----7-----------7-------------|
--7--------7--------7-----7-----------7-------------|

----------------------------------------------------|
----------------------------------------------------|
----------------------------------------------------|
--7--------7--------7-----7-----------7-------------|
--7--------7--------7-----7-----------7-------------|
--7--------7--------7-----7-----------7-------------|

--10-------------------------------13-------13L-----|
--10-------------------------------10-------10L-----|
----------------------------------------------------|
----------------------------------------------------|
-----------0M-0M-0M-0M-0M-0M-0M-0M------------------|
-----------0M-0M-0M-0M-0M-0M-0M-0M------------------|

--13----------------------10------------------------|
--10----------------------8-------------------------|
----------------------------------------------------|
----------------------------------------------------|
-----------0M-0M-0M-0M-0M----------0M-0M-0M-0M-0M---|
-----------0M-0M-0M-0M-0M----------0M-0M-0M-0M-0M---|

--10-------------------------------13-------13L-----|
--10-------------------------------10-------10L-----|
----------------------------------------------------|
----------------------------------------------------|
-----------0M-0M-0M-0M-0M-0M-0M-0M------------------|
-----------0M-0M-0M-0M-0M-0M-0M-0M------------------|

--13----------------------10------------------------|
--10----------------------8-------------------------|
----------------------------------------------------|
----------------------------------------------------|
-----------0M-0M-0M-0M-0M----------0M-0M-0M-0M-0M---|
-----------0M-0M-0M-0M-0M----------0M-0M-0M-0M-0M---|

----------------------------------------------------|
----------------------------------------------------|
----------------------------------------------------|
----------------------------------------------------|
--0M-------0M-0M-0M-0M-0M-0M-0M-0M-0M---------------|
--0M-------0M-0M-0M-0M-0M-0M-0M-0M-0M---------------|

----------------------------------------------------|
----------------------------------------------------|
----------------------------------------------------|
----------------------------------------------------|
-----------0M-0M-0M-0M-0M-0.-------0M-0M-0M-0M-0M---|
-----------0M-0M-0M-0M-0M-0.-------0M-0M-0M-0M-0M---|

----------------------------------------------------|
----------------------------------------------------|
----------------------------------------------------|
----------------------------------------------------|
--0M-------0M-0M-0M-0M-0M-0M-0M-0M-0M---------------|
--0M-------0M-0M-0M-0M-0M-0M-0M-0M-0M---------------|

----------------------------------------------------|
----------------------------------------------------|
----------------------------------------------------|
----------------------------------------------------|
-----------0M-0M-0M-0M-0M-0.-------0M-0M-0M-0M-0M---|
-----------0M-0M-0M-0M-0M-0.-------0M-0M-0M-0M-0M---|

---------------------------------------------------------------------------------|
---------------------------------------------------------------------------------|
---------------------------------------------------------------------------------|
---------------------------------------------------------------------------------|
---------------------------------------------------------------------------------|
--------------------------------------------------------------------------15s14s-|

--------------------|----------------------------------------------------|
--------------------|----------------------------------------------------|
--------------------|--7--7--7--7--------7--7--7-----7--7--7L----7s------|
--------------------|--7--7--7--7--------7--7--7-----7--7--7L----7s------|
--------------------|--5--5--5--5--------5--5--5-----5--5--5L----5s------|
13s12s11s10s9s-8----|----------------------------------------------------|

----------------------------------------------------|
----------------------------------------------------|
--5--5--5--5--------5--5--5-----5--5--5L----5s------|
--5--5--5--5--------5--5--5-----5--5--5L----5s------|
--3--3--3--3--------3--3--3-----3--3--3L----3s------|
----------------------------------------------------|

----------------------------------------------------|
----------------------------------------------------|
--3--------3--------3-----3-----------3-------------|
--3--------3--------3-----3-----------3-------------|
--1--------1--------1-----1-----------1-------------|
----------------------------------------------------|

----------------------------------------------------|
----------------------------------------------------|
--3--------3--------3-----3-----------3-------------|
--3--------3--------3-----3-----------3-------------|
--1--------1--------1-----1-----------1-------------|
----------------------------------------------------|

----------------------------------------------------|
----------------------------------------------------|
--7--7--7--7--------7--7--7-----7--7--7L----7s------|
--7--7--7--7--------7--7--7-----7--7--7L----7s------|
--5--5--5--5--------5--5--5-----5--5--5L----5s------|
----------------------------------------------------|

----------------------------------------------------|
----------------------------------------------------|
--5--5--5--5--------5--5--5-----5--5--5L----5s------|
--5--5--5--5--------5--5--5-----5--5--5L----5s------|
--3--3--3--3--------3--3--3-----3--3--3L----3s------|
----------------------------------------------------|

----------------------------------------------------|
----------------------------------------------------|
--3--------3--------3-----3-----------3-------------|
--3--------3--------3-----3-----------3-------------|
--1--------1--------1-----1-----------1-------------|
----------------------------------------------------|

----------------------------------------------------|
----------------------------------------------------|
--3--------3--------3-----3-----------3-------------|
--3--------3--------3-----3-----------3-------------|
--1--------1--------1-----1-----------1-------------|
----------------------------------------------------|

----------------------------------------------------|
----------------------------------------------------|
----------------------------------------------------|
--5--------5--------5-----5-----------5-------------|
--5--------5--------5-----5-----------5-------------|
--5--------5--------5-----5-----------5-------------|

----------------------------------------------------|
----------------------------------------------------|
----------------------------------------------------|
--3--------3--------3-----3-----------3-------------|
--3--------3--------3-----3-----------3-------------|
--3--------3--------3-----3-----------3-------------|

----------------------------------------------------|
----------------------------------------------------|
----------------------------------------------------|
--2--------2--------2-----2-----------2-------------|
--3--------3--------3-----3-----------3-------------|
--2--------2--------2-----2-----------2-------------|

----------------------------------------------------|
----------------------------------------------------|
----------------------------------------------------|
--0--------0--------0-----0-----------0-------------|
--0--------0--------0-----0-----------0-------------|
--0--------0--------0-----0-----------0-------------|

----------------------------------------------------|
----------------------------------------------------|
----------------------------------------------------|
--5--------5--------5-----5-----------5-------------|
--5--------5--------5-----5-----------5-------------|
--5--------5--------5-----5-----------5-------------|

----------------------------------------------------|
----------------------------------------------------|
----------------------------------------------------|
--3--------3--------3-----3-----------3-------------|
--3--------3--------3-----3-----------3-------------|
--3--------3--------3-----3-----------3-------------|

----------------------------------------------------|
----------------------------------------------------|
----------------------------------------------------|
--7--------7--------7-----7-----------7-------------|
--7--------7--------7-----7-----------7-------------|
--7--------7--------7-----7-----------7-------------|

----------------------------------------------------|-------|-------|-------|
----------------------------------------------------|-------|-------|-------|
----------------------------------------------------|-------|-------|-------|
--7--------7--------7-----7-----------7-------------|--0L---|--0L---|--0L---|
--7--------7--------7-----7-----------7-------------|--0L---|--0L---|--0L---|
--7--------7--------7-----7-----------7-------------|--0L---|--0L---|--0L---|

-------|-------|-------||
-------|-------|-------||
-------|-------|-------||
--0L---|--0L---|--0----||
--0L---|--0L---|--0----||
--0L---|--0L---|--0----||
 
 
Memphis May Fire - The Abandoned Tab :: indexed at Ultimate Guitar.
The Abandoned tabs @ 911Tabs
People who played Memphis May Fire - The Abandoned Tab also played these songs by Memphis May Fire:
Miles Away Chords, No Ordinary Love Chords, Speechless Chords, Miles Away Tab, Miles Away Chords, Cowbells Makin A Comeback Tab

Quick tip, so you can enjoy The Abandoned Tab even more:

You might want to transpose the song if it is too high or too low for you to sing. Just click the desired option while playing a song and all the chords will automatically be transponded into a new key.

Show us your talent, perform The Abandoned Tab!

Here you can post a video or audio performance. Tell me more ...
Where can we find your performance? Tell me more ...
Your comment:
Please, log in to post your performance.