Artists by letter: A B C D E F G H I J K L M N O P Q R S T U V W X Y Z 0-9

 
Miles Away Tab
Song: Miles Away (Ft. Kellin Quinn)
Artist: Memphis May Fire
Album: Challenger

Transcribed by Colton Wood
Tuning: Drop C# (C# G# C# F# A# D#)

This tab is basically just a tab of the lead. If you want to play the rhythm 
for this song, you're much better off looking at my chords tab for this, as 
the rhythm is very straight forward.



-----------
|  Intro  |
-----------
                                                                          
|----------------------------------------------------|
|----------------------------------------------------|
|--------------------------5b-------7h-5-------------|
|--------------5-----8--------------------8--5-------|
|--------8-------------------------------------------|
|----------------------------------------------------|

-------------
|  Verse 1  |  
-------------
                                                        
|----------------------------|----------------------------|
|----------------------------|----------------------------|
|----------------------------|--7--------------8--7-------|
|--5-----------5s-8--10------|-----------------------10b--|
|-----------------------8----|----------------------------|
|----------------------------|----------------------------|
                            
|----------------------------|----------------------------|
|----------------------------|----------------------------|
|-----7-----5----------------|------------5---------------|
|--------8-----7--8-----7----|----------------8h-7-5---8--|
|--------------------10------|-8--------------------------|
|----------------------------|----------------------------|
                                                                           
|----------------------------|----------------------------|
|----------------------------|----------------------------|
|----------------------------|----------------------------|
|--7b-------------------8----|--5-----------------3h-5----|
|----------------------------|----------------------------|
|----------------------------|----------------------------|

(One bar rest)

|--------15h13-------13----------13------------------|
|--------------15----------13b---------15h13-11------|
|----------------------------------------------------|
|----------------------------------------------------|
|----------------------------------------------------|
|----------------------------------------------------|
                                                          
|----------------------------|----------------------------|
|----------------------------|----------------------------|
|--12-------------12-14-15---|----------------17-15-14----|
|----------------------------|----------------------------|
|----------------------------|----------------------------|
|----------------------------|----------------------------|
                                                     
|----------------------------|----------------------------|
|----------------------------|----------------------------|
|-------15---12------12h14---|-12----10h12----10----------|
|----------------------------|--------------------12s10s--|
|----------------------------|----------------------------|
|----------------------------|----------------------------|
                                                                  
|----------------------------|----------------------------|
|----------------------------|----------------------------|
|-----------7----------------|----------------------------|
|--8-----10----------10-8----|--(8)-----------------------|
|----------------------------|----------------------------|
|----------------------------|----------------------------|
                    
      (Let Ring)                 (Let Ring)                
|------------10--------------|-----------8----------------|
|---------8------------------|--------6-------------------|
|-----10---------------------|-----7----------------------|
|----------------------------|----------------------------|
|----------------------------|----------------------------|
|----------------------------|----------------------------|

(One bar rest)
                                                     
|----------------------------------------------------|
|----------------------------------------------------|
|----------------------------------------------------|
|--------8-----8-----8-----8--------5h-8h-5----------|
|--------------------------------------------8-------|
|----------------------------------------------------|

------------
|  Chorus  |
------------

|----------------------------|----------------------------|
|----------------------------|----------------------------|
|----------------------------|----------------------------|
|--5--------------7--8--7----|----------------------------|
|----------------------------|--------8-----3--5--6--5----|
|----------------------------|----------------------------|
                                                                               
|-------------------------|------------------------------------------------|
|-------------------------|--------------------------------3---------------|
|--------8--7--5----------|--------------------------5b----------5h-3h-0---|
|--------------------8----|--------7-----7---------------------------------|
|--6----------------------|------------------------------------------------|
|-------------------------|------------------------------------------------|
                                                     
|----------------------------------------------------|
|----------------------------------------------------|
|--7-----7--7--7-----7--7--7-----5-------------------|
|--------------------------------------8-----5-------|
|----------------------------------------------------|
|----------------------------------------------------|
                                                     
|----------------------------------------------------|
|----------------------------------------------------|
|----------------------------------------------------|
|--5s----7-----7-----7--7--7-----7-----8-----8-------|
|----------------------------------------------------|
|----------------------------------------------------|
                                                          
|-----------6----------------|-----------8----------------|
|--------6--------6----------|--------6--------6----------|
|-----------------------5s---|--7-----------------7h-0----|
|--5-------------------------|----------------------------|
|----------------------------|----------------------------|
|----------------------------|----------------------------|
                                                     
|----------------------------------------------------|
|----------------------------------------------------|
|--0-----0--0--0-----0--0--0-----2-----3-----2-------|
|----------------------------------------------------|
|----------------------------------------------------|
|----------------------------------------------------|
                                                                               
|----------------------------------------------------|-------------------------|
|----------------------------------------------------|-------------------------|
|----------------------------------------------------|--------8--7--------5----|
|--3-----3-------------------------------------------|--------------7--8-------|
|--------------3--3--3-----3-----5-----6-----5-------|--6----------------------|
|----------------------------------------------------|-------------------------|
                                                     
|----------------------------------------------------|
|--------------------------------3-------------------|
|--------------------------5b----------5h-3h-0-------|
|--------7-----7-------------------------------------|
|----------------------------------------------------|
|----------------------------------------------------|
                                                     
|----------------------------------------------------|
|----------------------------------------------------|
|--7-----7--7--7-----7--7--------5-------------------|
|--------------------------8-----------8-------------|
|----------------------------------------------------|
|----------------------------------------------------|
                                                    
|----------------------------------------------------|
|----------------------------------------------------|
|----------------------------------------------------|
|--7-----7-----7-----7--7--7-----8-----0-----3-------|
|----------------------------------------------------|
|----------------------------------------------------|
                             
|-----------6----------------|
|--------6--------6----------|
|-----------------------5s---|
|--5-------------------------|
|----------------------------|
|----------------------------|

-    First Chorus Only   -                            
|--------------------8-----------8h-10h8-------------|-------|
|--------------6--------------------------11---------|--8----|
|--7-----------------------------------------7h-10---|-------|
|----------------------------------------------------|-------|
|----------------------------------------------------|-------|
|----------------------------------------------------|-------|

(Small interlude) - First chorus only

|----------------------------------------------------|
|----------------------------------------------------|
|--------------------------------7h-8h-7-------------|
|-----------------------------------------10h8-------|
|----------------------------------------------------|
|----------------------------------------------------|

-------------                        
|  Verse 2  |
-------------
                                  
|----------------------------|----------------------------|
|----------------------------|----------------------------|
|----------------------------|----------------------------|
|--10----8-------------------|--------------8-----7--8----|
|--------------------10-8----|-----10----------10---------|
|----------------------------|----------------------------|
                            
|----------------------------|----------------------------|
|----------------------------|----------------------------|
|--------------------7--8----|-------7s-5--------------7--|
|-----7--8--------7----------|-----------------8---7------|
|--8-----------8-------------|----------------------------|
|-----------10---------------|----------------------------|
                                                                  
|----------------------------|----------------------------|
|----------------------------|------3---------------------|
|-----------------------5----|-(5)b----5--3--------0--3---|
|--8h-5--5-------------------|----------------------------|
|----------------------------|----------------------------|
|----------------------------|----------------------------|

(One Bar Rest)
                                                     
|----------------------------------------------------|
|----------------------------------------------------|
|--------12----------------------12------------------|
|--11-12----12s10----------11s12----12s10-8----------|
|-----------------13-10-13-------------------10h8----|
|----------------------------------------------------|
                                                         
|----------------------------|----------------------------|
|----------------------------|----------------------------|
|--------10------------------|----------------------------|
|-----------------13s12-12---|--------------12----10s12---|
|--10-------------------13---|--------------13-13---------|
|----------------------------|----------------------------|
                                                    
|--------------------------------------------13------|
|----------------------------------------------------|
|--------------------------------14----10s12---------|
|----------------------------------------------------|
|----------------------------------------------------|
|----------------------------------------------------|
                                                     
|----------------------------------------------------|
|----------------------------------------------------|
|--------10h12---------------------------------------|
|--------------12----10------------------------------|
|--------------------------------13----------12------|
|----------------------------------------------------|

<
|----------------------------|
|--11~---------11-10----10---|
|--------------------12b-----|
|----------------------------|
|----------------------------|
|----------------------------|

|----------------------------------------------------|
|----------------------------------------------------|
|--------12----------------------10----10h---12------|
|-----------------------------------12---------------|
|----------------------------------------------------|
|----------------------------------------------------|

(One bar rest)

|--15----15-15----15-15----15-15----15-15------------|
|--18b------18b------18b------18b------18b-----------|
|----------------------------------------------------|
|----------------------------------------------------|
|----------------------------------------------------|
|----------------------------------------------------|

|  (Back To Chorus)  |

------------
|  Bridge  |
------------

(Rest for 8 whole bars and then the lead comes in)
(This is very quiet, so you may not even notice it)

|----------------------------|
|--8--8--------8--8--8-8-8-8-|
|--------7--10---------------|
|----------------------------|
|----------------------------|
|----------------------------|

|----------------------------------------------------|
|--10h11h10-8h-10h8--------8-------------------------|
|--------------------10h7--------7-----7-------------|
|--------------------------------------------10h8----|
|----------------------------------------------------|
|----------------------------------------------------|

|----------------------------|
|--8--8--------8~----8--8----|
|--------7--10---------------|
|----------------------------|
|----------------------------|
|----------------------------|

|--10h13h10----10------------------------------------|
|-----------13----13-10h11-13b---13----13h11---------|
|--------------------------------------------12h10---|
|----------------------------------------------------|
|----------------------------------------------------|
|----------------------------------------------------|

|----------------------------|
|--8L-8s-------8~------------|
|--------7--10---------------|
|----------------------------|
|----------------------------|
|----------------------------|

|----------------------------------------------------|
|--10h11h10-8h-10h8--------8-------------------------|
|--------------------10h7--------7-----7-------------|
|--------------------------------------------10h8----|
|----------------------------------------------------|
|----------------------------------------------------|

|----------------------------|
|--8--8--------8~----8--8----|
|--------7--10---------------|
|----------------------------|
|----------------------------|
|----------------------------|

|--------------------------------------15h18h15------|
|-----------------------------15-16-18----------18---|
|-----------------12-14-15-17------------------------|
|--------12-13-15------------------------------------|
|--13-15---------------------------------------------|
|----------------------------------------------------|

|--15-----------------------|
|----------------------------|
|----------------------------|
|----------------------------|
|----------------------------|
|----------------------------|

To the chorus once more, but there is no lead in the final chorus.

That about sums it up!
Good luck. m/
 
 
Memphis May Fire - Miles Away Tab :: indexed at Ultimate Guitar.
Miles Away tabs @ 911Tabs
People who played Memphis May Fire - Miles Away Tab also played these songs by Memphis May Fire:
Miles Away Chords, No Ordinary Love Chords, Speechless Chords, Miles Away Chords, Cowbells Makin A Comeback Tab, Miles Away Tab

Quick tip, so you can enjoy Miles Away Tab even more:

If you spend just 10 seconds to register, you will be able to comment on all the chords and tabs and rate them. You will as well be able to comment on videos of your fellow guitarists and give them ratings from 1 to 5 ... And - of course - you can share your own videos with them and see what they think of you. :)
Click here to join us!

Show us your talent, perform Miles Away Tab!

Here you can post a video or audio performance. Tell me more ...
Where can we find your performance? Tell me more ...
Your comment:
Please, log in to post your performance.