Artists by letter: A B C D E F G H I J K L M N O P Q R S T U V W X Y Z 0-9

 
Nightrider Tab
-------------------------------------------------------------------------------
                             Nightrider - Queensryche
-------------------------------------------------------------------------------
Tabbed by: Sean Tysoe
E-mail:[email protected]

if you want to request other queensryche songs for me to tab out for you then you can 
email me.

Tuning: E A D G B e

Riff 1
e|-----------------------------------------------------------------------|
B|------------------8--10------------------------------------------------|
G|----------7-------7--9----------7--------------------------------------|
D|--9----7--5--9----5--7--9----7--5--9----7-9-10-9-7---------7-----------|
A|--7----5-----7----------7----5-----7---------------10-9-10---10-9------|
E|--0----------0----------0----------0-------------------------------10--|

Riff 2
e|-----------------------------------------------------------------------|
B|-----------------------------------------------------------------------|
G|----------------------------------------------------9-9----7-7----10---|
D|--------------------------------------------10-9----9-9----7-7----10---|
A|--7----7-9-7-9-10-9-7-9-7----7--------------10-9----7-7----5-5----8----|
E|----10--------------------10---10-8-10-8-7--8--7-----------------------|

e|-----------------------------------------------------------------------|
B|-----------------------------------------------------------------------|
G|----------------------------------------------------9-9----7-7----5----|
D|--------------------------------------------10-9----9-9----7-7----5----|
A|--7----7-9-7-9-10-9-7-9-7----7--------------10-9----7-7----5-5----3----|
E|----10--------------------10---10-8-10-8-7--8--7-----------------------|

Repeat riff 1 and play this after

e|---------------------------|
B|---------------------------|
G|--5-7-9-7-5-------5--------|
D|------------9-7-9---9-7-5--|
A|---------------------------|
E|---------------------------|

Verse riff
e|---------------------------------------------------------|
B|---------------------------------------------------------|
G|--------9---9-------9---9-------9---9--------------------|
D|--------9---9-------9---9-------9---9--10-9-7------------|
A|--------7---7-------7---7-------7---7---------10-9-------|
E|--0-0-0---0---0-0-0---0---0-0-0---0----------------10----|

e|-----------------------------------------------------|
B|---------------------------------------8-8-8---------|
G|--------7---7-------7---7-------7---7--7-7-7--7-7----|
D|--------7---7-------7---7-------7---7--5-5-5--7-7----|
A|--------5---5-------5---5-------5---5---------5-5----|
E|--0-0-0---0---0-0-0---0---0-0-0---0------------------|

e|---------------------------------------------------------|
B|---------------------------------------------------------|
G|--------9---9-------9---9-------9---9--------------------|
D|--------9---9-------9---9-------9---9--10-9-7------------|
A|--------7---7-------7---7-------7---7---------10-9-------|
E|--0-0-0---0---0-0-0---0---0-0-0---0----------------10----|

e|------------------------------------------------------|
B|---------------------------------------8-8-8--1010----|
G|--------7---7-------7---7-------7---7--7-7-7--9-9-----|
D|--------7---7-------7---7-------7---7--5-5-5--7-7-----|
A|--------5---5-------5---5-------5---5-----------------|
E|--0-0-0---0---0-0-0---0---0-0-0---0-------------------|

First chorus part
e|--------------------------------------------------------------|
B|--------------------------------------------------------------|
G|--9----7--6--9-9---------------9----7--6--9-9-----------------|
D|--9----5--4--7-9----5-4---5-4--9----5--4--7-9----5-4---5-4----|
A|--7------------7--------7-3-2--7------------7--------7-3-2----|
E|--0------------0---------------0------------0-----------------|

Verse again then

Main chorus riff
e|--------------------------------------------|
B|---------------8----------------------------|
G|--9--7--9----7-7-5----9--7--9----9--7--2----|
D|--9--7--9----7-5-5----9--7--9----9--7--2----|
A|--7--5--7----5---3----7--5--7----7--5--0----|
E|--0-------------------0---------------------|

e|--------------------------------------------|
B|---------------8----------------------------|
G|--9--7--9----7-7-7----9--7--9----9--7--2----|
D|--9--7--9----7-5-7----9--7--9----9--7--2----|
A|--7--5--7----5---5----7--5--7----7--5--0----|
E|--0-------------------0---------------------|

That is the majority of the rhythm for the song. I will be updating it with the solos 
and anything else I haven't included very soon.

************************************

| /   slide up
|    slide down
| h   hammer-on
| p   pull-off
| ~   vibrato
| +   harmonic
| x   Mute note
| b   Bend
| pb  Pre-bend
| br  Bend release
| pbr Pre-bend release
| brb Bend release bend
 
 
Queensryche - Nightrider Tab :: indexed at Ultimate Guitar.
Nightrider tabs @ 911Tabs

Quick tip, so you can enjoy Nightrider Tab even more:

Try out the AutoScroller option ... It scrolls the page for you, so you can totally focus on nailing that solo. You can choose among different speeds using your mouse or your keyboard (keys 0, 1, 2 and 3).

Show us your talent, perform Nightrider Tab!

Here you can post a video or audio performance. Tell me more ...
Where can we find your performance? Tell me more ...
Your comment:
Please, log in to post your performance.