Artists by letter: A B C D E F G H I J K L M N O P Q R S T U V W X Y Z 0-9

 
Fame Over Infamy - Dear Agony Tab
'FAME OVER INFAMY' - "DEAR AGONY" GUITAR TABS

Okay. So, I haven't figured out the whole song  Just the 
intro and bridge. Which I'm sure are right. Here you go~

INTRO:
  ________________________________________________________________ 
e|--------7---------------7---------------5---------------5-------|
B|----5-5----5--------5-5----5--------5-5----5--------5-5----5----|
G|-5---5-5------5--5---5-5------5--7---7-7------7--7---7-7------7-|
D|----------------------------------------------------------------|
A|----------------------------------------------------------------|
E|----------------------------------------------------------------|
 |________________________________________________________________|

________________________________________________________
e|--------7---------------7---------------5-------7~----5~|
B|----5-5----5--------5-5----5--------5-5----5------------|
G|-5---5-5------5--5---5-5------5--7---7-7----------------|
D|--------------------------------------------------------|
A|--------------------------------------------------------|
E|--------------------------------------------------------|
 |________________________________________________________|

I couldn't really figure out the Chorus or verse X-X
I'll find out later. (Pretty sure the chorus has C and 
E in it? A7? Idk.)

BRIDGE:
  ___________________________________________________
e|---------------------------------------------------|
B|---------------------------------------------------|
G|---------------------------------------------------|
D|---------------------------------------------------|
A|---------------------------------------------------|
E|-0-00003-2-3-5-55553-3333/7-77777-8-7-5-55555-7-5--|
 |___________________________________________________|

___________________________________________________
e|---------------------------------------------------|
B|---------------------------------------------------|
G|---------------------------------------------------|
D|---------------------------------------------------|
A|---------------------------------------------------|
E|-0-00003-2-3-5-55553-3333/7-77777-8-7-5~----5-7-5--|
 |___________________________________________________|

OUTRO:
(This part is REALLY iffy)
(figure out strum pattern by yourself)
  ____________________________________
e|-0-----3-----3----------------------|
B|-0--3--0-----0----------------------|
G|-0--2--0-----0----------------------|
D|-2--0--0-----0---2~-----------------|
A|-2--0--2--0--2---2~-----------------|
E|-0-----3--2--3---0~-----------------|
 |(E)___(G)___(G)_(E)_________________|

___________________________________________________
e|-3--2--3-----3--2--5-----3--2--5-------------------|
B|---------------------------------------------------|
G|---------------------------------------------------|
D|----------0~----------0~----------0~----------0~---|
A|----------2~----------2~----------2~----------2~---|
E|----------3~----------2~----------3~----------2~---|
 |___________________________________________________|
 
 
Misc Unsigned Bands - Fame Over Infamy - Dear Agony Tab :: indexed at Ultimate Guitar.
Fame Over Infamy - Dear Agony tabs @ 911Tabs

Quick tip, so you can enjoy Fame Over Infamy - Dear Agony Tab even more:

Try out the AutoScroller option ... It scrolls the page for you, so you can totally focus on nailing that solo. You can choose among different speeds using your mouse or your keyboard (keys 0, 1, 2 and 3).

Show us your talent, perform Fame Over Infamy - Dear Agony Tab!

Here you can post a video or audio performance. Tell me more ...
Where can we find your performance? Tell me more ...
Your comment:
Please, log in to post your performance.