Artists by letter: A B C D E F G H I J K L M N O P Q R S T U V W X Y Z 0-9

 
Jezebel Tab
----------------------------------------------------------------------------
                               Jezebel
                           Memphis May Fire
----------------------------------------------------------------------------

This is my try out of different technique of tabbing that I have been suggested to do 
for a while. I thought it would be good to use it on an amazing, and very relatable, song 
from MMF. This one is to all the harlots out there. Enjoy!

Username: dkm817 (same on X box live)
Youtube Cover: http://www.youtube.com/watch?v=oMlO6j8Cbs0
Email: [email protected]

Guitar 1 Rhythmic (G# D# G# C# F  A#)
Guitar 2 Lead     (G# D# G# C# F  A#)

Tab Guide...
===================================================================
(end of measures)

===================================================================
===================================================================
(end of parts)

===================================================================
===================================================================
===================================================================
(end of song)
(If there is a "continued" it is because the numbers could not
fit on 1 line or connecting times played.)

===================================================================
Guitar 1
===================================================================

Intro

Guitar 1 (Fade In)
A#-----------------------------------------------------------------|
F -----------------------------------------------------------------|
C#-----------------------------------------------------------------|
G#-----0-10-12-----------------------------------------------------|
D#----------------/12------8---------------------------------------|
G#-0-----------0-------0-------0---0-0-0---8-7-0---5-3-0---7-5-0---|
Pm                                 . .

===================================================================

Guitar 1
A#-----------------------------------------------------------------|
F -----------------------------------------------------------------|
C#-----------------------------------------------------------------|
G#-----0-10-12-----------------------------------------------------|
D#----------------/12------8---------------------------------------|
G#-0-----------0-------0-------0---0-0-0---8-7-0---5-3-0---7-5-0---|
Pm                                 . .

===================================================================
===================================================================

Verse 1

Guitar 1
A#-----------------------------------------------------------------|
F -----------------------------------------------------------------|
C#-----------------------------------------------------------------|
G#-----0-10-12-----------------------------------------------------|
D#----------------/12------8---------------------------------------|
G#-0-----------0-------0-------0---0-0-0---8-7-0---5-3-0---7-5-0---|
Pm                                 . .

===================================================================

Guitar 1
A#-----------------------------------------------------------------|
F -----------------------------------------------------------------|
C#-----------------------------------------------------------------|
G#-------------------------2-3-2-------0-0-0---0-0-0--9-10-9-7-----|
D#---------3-------0-1-0---------------0-0-0---0-0-0-----------10--|
G#-0---3-5-----0-----------------------0-0-0---0-0-0---------------|
Pm                                     . .     . .

===================================================================

Guitar 1
A#-----------------------------------------------------------------|
F -----------------------------------------------------------------|
C#-----------------------------------------------------------------|
G#-----0-3-5-----------8-------------------------------------------|
D#-------------------------------------1-----------------------0---|
G#-0-----------0---0-------0-0-0-----------3-2-0---0-0-2---3-------|
Pm                         . .                     . .

===================================================================

Guitar 1
A#-----------------------------------------------------------------|
F -----------------------------------------------------------------|
C#-----------------------------------------------------------------|
G#-8---8-8-8---8-8-----------------------------------------0-3~~~~-|
D#-8---8-8-8---8-8-------------------------------------------------|
G#-8---8-8-8---8-8-8---10--8---7~~~~~~-10--0~~~~~~-0---0-----------|
Pm     . .     . .

===================================================================

Guitar 1
A#-----------------------------------------------------------------|
F -----------------------------------------------------------------|
C#-----------------------------------------------------------------|
G#-----0-10-12-----------------------------------------------------|
D#----------------/12------8---------------------------------------|
G#-0-----------0-------0-------0---0-0-0---8-7-0---5-3-0---7-5-0---|
Pm                                 . .

===================================================================

Guitar 1
A#-----------------------------------------------------------------|
F -----------------------------------------------------------------|
C#-----------------------------------------------------------------|
G#-------------------------2-3-2-------0-0-0---0-0-0--9-10-9-7-----|
D#---------3-------0-1-0---------------0-0-0---0-0-0-----------10--|
G#-0---3-5-----0-----------------------0-0-0---0-0-0---------------|
Pm                                     . .     . .

===================================================================

Guitar 1
A#-----------------------------------------------------------------|
F -----------------------------------------------------------------|
C#-----------------------------------------------------------------|
G#-----0-3-5-----------8-------------------------------------------|
D#-------------------------------------1-----------------------0---|
G#-0-----------0---0-------0-0-0-----------3-2-0---0-0-2---3-------|
Pm                         . .                     . .

===================================================================

Guitar 1
A#-----------------------------------------------------------------|
F -----------------------------------------------------------------|
C#-----------------------------------------------------------------|
G#-8---8-8-8---8-8---------------------------------x---x-x-----x-x-|
D#-8---8-8-8---8-8---------------------------------x---x-x-----x-x-|
G#-8---8-8-8---8-8-8---10--8---7~~~~~~-10--0~~~~~~-x---x-x-----x-x-|
Pm     . .     . .

===================================================================
===================================================================

Pre Chorus 1

Guitar 1
A#-----------------------------------------------------------------|
F -----------------------------------------------------------------|
C#-----------------------------------------------------------------|
G#-0-------0-0-0-0-0---0-------0-0-0-0-0-0-0---0-0-----0---0-0-0-0-|
D#-0-------0-0-0-0-0---0-------0-0-0-0-0-0-0---0-0-----0---0-0-0-0-|
G#-0-------0-0-0-0-0---0-------0-0-0-0-0-0-0---0-0-----0---0-0-0-0-|
Pm .       . . . . .   .       . . . . . . .   . .     .   . . . .

===================================================================

Guitar 1
A#-----------------------------------------------------------------|
F -----------------------------------------------------------------|
C#-----------------------------------------------------------------|
G#-0-------7-8---8-7---0-------0-0-7-7---5-3---0-------0---0-0-0-0-|
D#-0-------7-8---8-7---0-------0-0-7-7---5-3---0-------0---0-0-0-0-|
G#-0-------7-8---8-7---0-------0-0-7-7---5-3---0-------0---0-0-0-0-|
Pm .                           . .                     .   . . . .

===================================================================

Guitar 1
A#-----------------------------------------------------------------|
F -----------------------------------------------------------------|
C#-----------------------------------------------------------------|
G#-0-------0-0-0-0-0---0-------0-0-0-0-0-0-0---0-0-----3---5---7---|
D#-0-------0-0-0-0-0---0-------0-0-0-0-0-0-0---0-0-----3---5---7---|
G#-0-------0-0-0-0-0---0-------0-0-0-0-0-0-0---0-0-----3---5---7---|
Pm .       . . . . .   .       . . . . . . .   . .

===================================================================

Guitar 1
A#-----------------------------------------------------------------|
F -----------------------------------------------------------------|
C#-----------------------------------------------------------------|
G#-7-7-7---8---7--7-7-7---8---7---7-7-7---8---7---10~~~~----------|
D#-7-7-7---8---7--7-7-7---8---7---7-7-7---8---7---10~~~~----------|
G#-7-7-7---8---7--7-7-7---8---7---7-7-7---8---7---10~~~~----------|
Pm . .            . .             . .             .

===================================================================
===================================================================

Chorus

(x2)

Guitar 1
A#-----------------------------------------------------------------|
F -----------------------------------------------------------------|
C#-----------------------------------------------------------------|
G#-8~~~~-8-8~~-8~~~~-8-8-----8-8-10~~~-12~-0~~~~~~-0-0-0~~-0-0-0-0-|
D#-8~~~~-8-8~~-8~~~~-8-8-8~~-8-8-10~~~-12~-0~~~~~~-0-0-0~~-0-0-0-0-|
G#-8~~~~-8-8~~-8~~~~-8-8-----8-8-10~~~-12~-0~~~~~~-0-0-0~~-0-0-0-0-|
Pm                   . .     . .                   . .     . . . .

===================================================================

Guitar 1
A#-----------------------------------------------------------------|
F -----------------------------------------------------------------|
C#-------------------------------12~~~-12~-12~-12~-----------------|
G#-8~~~~-8-8~~-8~~~~-8-8-10~-8-8-10~~~-10~-10~-10~-x-x-x-x-x-x-x-x-|
D#-8~~~~-8-8~~-8~~~~-8-8-8~~-8-8-10~~~-10~-10~-10~-x-x-x-x-x-x-x-x-|
G#-8~~~~-8-8~~-8~~~~-8-8-8~~-8-8-10~~~-10~-10~-10~-x-x-x-x-x-x-x-x-|
Pm                   . .     . .                   . .     . . . .

===================================================================

Guitar 1
A#-----------------------------------------------------------------|
F -----------------------------------------------------------------|
C#-----------------------------------------------------------------|
G#-8~~~~-8-8~~-8~~~~-8-8-----8-8-10~~~-12~-0~~~~~~-0-0-0~~-0-0-0-0-|
D#-8~~~~-8-8~~-8~~~~-8-8-8~~-8-8-10~~~-12~-0~~~~~~-0-0-0~~-0-0-0-0-|
G#-8~~~~-8-8~~-8~~~~-8-8-----8-8-10~~~-12~-0~~~~~~-0-0-0~~-0-0-0-0-|
Pm                   . .     . .                   . .     . . . .

===================================================================

Guitar 1
A#-----------------------------------------------------------------|
F -----------------------------------------------------------------|
C#-------------------------------12~~~-12~-----7~~~~~~~~~~~~~~~~~~-|
G#-8~~~~-8-8~~-8~~~~-8-8-10~-8-8-10~~~-10~-0---0~~~~~~~~~~~~~~~~~~-|
D#-8~~~~-8-8~~-8~~~~-8-8-8~~-8-8-10~~~-10~-0---0~~~~~~~~~~~~~~~~~~-|
G#-8~~~~-8-8~~-8~~~~-8-8-8~~-8-8-10~~~-10~-0---0~~~~~~~~~~~~~~~~~~-|
Pm                   . .     . .           .

===================================================================
===================================================================

Break Off 1

Guitar 1
A#-----------------------------------------------------------------|
F -----------------------------------------------------------------|
C#-----------------------------------------------------------------|
G#-0---------------------------x---x---------------0~~~~~~~~~~~~~~-|
D#-0---------------------------x---x---------------0~~~~~~~~~~~~~~-|
G#-0---------------------------x---x---------------0~~~~~~~~~~~~~~-|
Pm .

===================================================================
===================================================================

Breakdown 1

Guitar 1
A#-----------------------------------------------------------------|
F -----------------------------------------------------------------|
C#-----------------------------------------------------------------|
G#-0~~~----0~~~----0~~~~-3~~~~-7~~~~-3~~-0-------------------------|
D#-0~~~----0~~~----0~~~~-3~~~~-7~~~~-3~~-0-------------------------|
G#-0~~~----0~~~----0~~~~-3~~~~-7~~~~-3~~-0---0-0-8---0-8---0-8-10--|
Pm                                           . .

===================================================================

Guitar 1
A#---------------------------------------------------------------------|
F ---------------------------------------------------------------------|
C#---------------------------------------------------------------------|
G#---------------------------------------------------------------------|
D#-----9-10-9--------------------------------------------------4-4-4-4-|
G#-0----------10-8-0-0-8---0-8---0-8---0-7---0-3---0-5---0-5-----------|
Pm .               . .     .     .     .     .     .     .

===================================================================

Guitar 1
A#-----------------------------------------------------------------|
F -----------------------------------------------------------------|
C#-----------------------------------------------------------------|
G#-0~~~----0~~~~~~-------------------------------------------------|
D#-0~~~----0~~~~~~-------------------------------------------------|
G#-0~~~----0~~~~~~-8~~~~-5~~~~-7~~~~-0---0---0-0-8---0-8---0-8-10--|
Pm                                           . .

===================================================================

Guitar 1
A#---------------------------------------------------------------------|
F ---------------------------------------------------------------------|
C#-----2-3-2-0---------------------------------------------------------|
G#-------------3-0-----------------------10----8-----5-----7---7-7-7-7-|
D#---------------------------------------------------------------------|
G#-0---------------0-0-0---0-10--0-12--0-----0-----0-----0-------------|
Pm .               . .     .     .     .     .     .     .

===================================================================

Guitar 1
A#-----------------------------------------------------------------|
F -----------------------------------------------------------------|
C#-----------------------------------------------------------------|
G#-0~~~----0~~~----0~~~~-3~~~~-7~~~~-3~~-0-------------------------|
D#-0~~~----0~~~----0~~~~-3~~~~-7~~~~-3~~-0-------------------------|
G#-0~~~----0~~~----0~~~~-3~~~~-7~~~~-3~~-0---0-0-8---0-8---0-8-10--|
Pm                                           . .

===================================================================

Guitar 1
A#---------------------------------------------------------------------|
F ---------------------------------------------------------------------|
C#---------------------------------------------------------------------|
G#---------------------------------------------------------------------|
D#-----9-10-9--------------------------------------------------4-4-4-4-|
G#-0----------10-8-0-0-8---0-8---0-8---0-7---0-3---0-5---0-5-----------|
Pm .               . .     .     .     .     .     .     .

===================================================================

Guitar 1
A#-----------------------------------------------------------------|
F -----------------------------------------------------------------|
C#-----------------------------------------------------------------|
G#-0~~~----0~~~~~~-------------------------------------------------|
D#-0~~~----0~~~~~~-------------------4b~---------------------------|
G#-0~~~----0~~~~~~-8~~~~-5~~~~-7~~~~-----0---0-0-8---0-8---0-8-10--|
Pm                                           . .

===================================================================

Guitar 1
A#---------------------------------------------------------------------|
F ---------------------------------------------------------------------|
C#-----2-3-2-0---------------------------------------------------------|
G#-------------3-0-----------------------------------------------------|
D#---------------------------10----12----13----10----12----13--8-8-8-8-|
G#-0---------------0-0-0---0-----0-----0-----0-----0-----0-------------|
Pm .               . .     .     .     .     .     .     .

===================================================================
===================================================================

Break Off 2

Guitar 1
A#-13-17-13-17-13-17-13-17-15-18-15-18-15-18-15-18-|
F -------------------------------------------------|
C#-------------------------------------------------|
G#-------------------------------------------------|
D#-------------------------------------------------|
G#-------------------------------------------------|

Guitar 1 continued
A#-20--17----------17--20--17----------------------|
F ---------20--20--------------20--17~~~~~--------|
C#-------------------------------------------------|
G#-------------------------------------------------|
D#-------------------------------------------------|
G#-------------------------------------------------|

===================================================================
===================================================================

Verse 2

Guitar 1
A#-----------------------------------------------------------------|
F -----------------------------------------------------------------|
C#-----------------------------------------------------------------|
G#-----0-10-12-----------------------------------------------------|
D#----------------/12------8---------------------------------------|
G#-0-----------0-------0-------0---0-0-0---8-7-0---5-3-0---7-5-0---|
Pm                                 . .

===================================================================

Guitar 1
A#-----------------------------------------------------------------|
F -----------------------------------------------------------------|
C#-----------------------------------------------------------------|
G#-------------------------2-3-2-------0-0-0---0-0-0--9-10-9-7-----|
D#---------3-------0-1-0---------------0-0-0---0-0-0-----------10--|
G#-0---3-5-----0-----------------------0-0-0---0-0-0---------------|
Pm                                     . .     . .

===================================================================

Guitar 1
A#-----------------------------------------------------------------|
F -----------------------------------------------------------------|
C#-----------------------------------------------------------------|
G#-----0-3-5-----------8-------------------------------------------|
D#-------------------------------------1-----------------------0---|
G#-0-----------0---0-------0-0-0-----------3-2-0---0-0-2---3-------|
Pm                         . .                     . .

===================================================================

Guitar 1
A#-----------------------------------------------------------------|
F -----------------------------------------------------------------|
C#-----------------------------------------------------------------|
G#-8---8-8-8---8-8-----------------------------------------0-3~~~~-|
D#-8---8-8-8---8-8-------------------------------------------------|
G#-8---8-8-8---8-8-8---10--8---7~~~~~~-10--0~~~~~~-0---0-----------|
Pm     . .     . .

===================================================================
===================================================================

Breakdown 2

Guitar 1
A#-----------------------------------------------------------------|
F -----------------------------------------------------------------|
C#-----------------------------------------------------------------|
G#-0-------0---0-------0-------0---0-------0-------0-------0-0-0-0-|
D#-0-------0---0-------0-------0---0-------0-------0-------0-0-0-0-|
G#-0-------0---0-------0-------0---0-------0-------0-------0-0-0-0-|
Pm .       .   .       .       .   .       .       .       . . . .

===================================================================

Guitar 1
A#-----------------------------------------------------------------|
F ---------------------------------10------------------------------|
C#-----------------------------------------------------------------|
G#-----------------------------------------------------7---5---7---|
D#-----------------------------------------------------7---5---7---|
G#-------------------------------------0---7-7-5-------7---5---7---|

===================================================================

Guitar 1
A#-----------------------------------------------------------------|
F -----------------------------------------------------------------|
C#-----------------------------------------------------------------|
G#-0-------0---0-------0-------0---0-------0-------0-------0-0-0-0-|
D#-0-------0---0-------0-------0---0-------0-------0-------0-0-0-0-|
G#-0-------0---0-------0-------0---0-------0-------0-------0-0-0-0-|
Pm .       .   .       .       .   .       .       .       . . . .

===================================================================

Guitar 1
A#-----------------------------------------------------------------|
F -----------------------------------------------------------------|
C#---------------------------------3---2-3-2-0-----0---2-----------|
G#-8---8-8-8---8-8-----------------------------3-----------3-------|
D#-8---8-8-8---8-8---------------------------------------------4---|
G#-8---8-8-8---8-8-8---10--8---7-----------------------------------|
Pm     . .     . .

===================================================================
===================================================================

Pre Chorus 2

Guitar 1
A#---------------------------------------------------------22-22-22-|
F ------------------------------------------------------------------|
C#------------------------------------------------------------------|
G#-0~~~----0~~~----8---7---0-0-0---0---0-0-0-0-0---0---0------------|
D#-0~~~----0~~~----8---7---0-0-0---0---0-0-0-0-0---0---0------------|
G#-0~~~----0~~~----8---7---0-0-0---0---0-0-0-0-0---0---0------------|
Pm                         . . .   .   . . . . .   .   .

===================================================================

Guitar 1
A#-22-22-22--------------------------------------------------------|
F -----------------------------------------------------------------|
C#-----------------------------------------------------------------|
G#----------0-------0-0---0-0---0----------------------3---2-------|
D#----------0-------0-0---0-0---0--------------4---5-----------0---|
G#----------0-------0-0---0-0---0----------0-----------------------|
Pm          .       . .   . .   .

===================================================================

Guitar 1
A#---------------------------------------------------------22-22-22-|
F ------------------------------------------------------------------|
C#------------------------------------------------------------------|
G#-0~~~----0~~~~~~-8---7---0-0-0---0---0-0-0-0-0---0---0------------|
D#-0~~~----0~~~~~~-8---7---0-0-0---0---0-0-0-0-0---0---0------------|
G#-0~~~----0~~~~~~-8---7---0-0-0---0---0-0-0-0-0---0---0------------|
Pm                         . . .   .   . . . . .   .   .

===================================================================

Guitar 1
A#-22-22-22--------------------------------------------------------|
F -----------------------------------------------------------------|
C#-----------------------------------------------------------------|
G#----------0-------0-0---0-0---0----------------------------------|
D#----------0-------0-0---0-0---0--7---3---------------------------|
G#----------0-------0-0---0-0---0----------5---3---0---7---5---3---|
Pm          .       . .   . .   .

===================================================================
===================================================================

Chorus

(x2)

Guitar 1
A#-----------------------------------------------------------------|
F -----------------------------------------------------------------|
C#-----------------------------------------------------------------|
G#-8~~~~-8-8~~-8~~~~-8-8-----8-8-10~~~-12~-0~~~~~~-0-0-0~~-0-0-0-0-|
D#-8~~~~-8-8~~-8~~~~-8-8-8~~-8-8-10~~~-12~-0~~~~~~-0-0-0~~-0-0-0-0-|
G#-8~~~~-8-8~~-8~~~~-8-8-----8-8-10~~~-12~-0~~~~~~-0-0-0~~-0-0-0-0-|
Pm                   . .     . .                   . .     . . . .

===================================================================

Guitar 1
A#-----------------------------------------------------------------|
F -----------------------------------------------------------------|
C#-------------------------------12~~~-12~-12~-12~-----------------|
G#-8~~~~-8-8~~-8~~~~-8-8-10~-8-8-10~~~-10~-10~-10~-x-x-x-x-x-x-x-x-|
D#-8~~~~-8-8~~-8~~~~-8-8-8~~-8-8-10~~~-10~-10~-10~-x-x-x-x-x-x-x-x-|
G#-8~~~~-8-8~~-8~~~~-8-8-8~~-8-8-10~~~-10~-10~-10~-x-x-x-x-x-x-x-x-|
Pm                   . .     . .                   . .     . . . .

===================================================================

Guitar 1
A#-----------------------------------------------------------------|
F -----------------------------------------------------------------|
C#-----------------------------------------------------------------|
G#-8~~~~-8-8~~-8~~~~-8-8-----8-8-10~~~-12~-0~~~~~~-0-0-0~~-0-0-0-0-|
D#-8~~~~-8-8~~-8~~~~-8-8-8~~-8-8-10~~~-12~-0~~~~~~-0-0-0~~-0-0-0-0-|
G#-8~~~~-8-8~~-8~~~~-8-8-----8-8-10~~~-12~-0~~~~~~-0-0-0~~-0-0-0-0-|
Pm                   . .     . .                   . .     . . . .

===================================================================

Guitar 1
A#-----------------------------------------------------------------|
F -----------------------------------------------------------------|
C#-------------------------------12~~~-12~-----7~~~~~~~~~~~~~~~~~~-|
G#-8~~~~-8-8~~-8~~~~-8-8-10~-8-8-10~~~-10~-0---0~~~~~~~~~~~~~~~~~~-|
D#-8~~~~-8-8~~-8~~~~-8-8-8~~-8-8-10~~~-10~-0---0~~~~~~~~~~~~~~~~~~-|
G#-8~~~~-8-8~~-8~~~~-8-8-8~~-8-8-10~~~-10~-0---0~~~~~~~~~~~~~~~~~~-|
Pm                   . .     . .           .

===================================================================
===================================================================

Interlude 1

Guitar 1
A#-----------------------------------------------------------------|
F -----------------------------------------------------------------|
C#-----------------------------------------------------------------|
G#-----------------------------------------------------------------|
D#-12--12--12--12--12--12--12--12--12--12--12--12--12--12--12--12--|
G#-----------------------------------------------------------------|

===================================================================

Guitar 1
A#-----------------------------------------------------------------|
F -----------------------------------------------------------------|
C#-----------------------------------------------------------------|
G#-----------------------------------------------------------------|
D#-12--12--12--12--12--12--12--12--12--12--12--12--12--12--12--12--|
G#-----------------------------------------------------------------|

===================================================================

Guitar 1
A#-----------------------------------------------------------------|
F -----------------------------------------------------------------|
C#-----------------------------------------------------------------|
G#-----------------------------------------------------------------|
D#-11--11--11--11--11--11--11--11--11--11--11--11--11--11--11--11--|
G#-----------------------------------------------------------------|

===================================================================

Guitar 1
A#-----------------------------------------------------------------|
F -----------------------------------------------------------------|
C#-----------------------------------------------------------------|
G#-----------------------------------------------------------------|
D#-12--12--12--12--12--12--12--12--15--15--15--15--15--15--15--15--|
G#-----------------------------------------------------------------|

===================================================================

Guitar 1
A#-----------------------------------------------------------------|
F -----------------------------------------------------------------|
C#-----------------------------------------------------------------|
G#-----------------------------------------------------------------|
D#-12--12--12--12--12--12--12--12--12--12--12--12--12--12--12--12--|
G#-----------------------------------------------------------------|

===================================================================

Guitar 1
A#-----------------------------------------------------------------|
F -----------------------------------------------------------------|
C#-----------------------------------------------------------------|
G#-----------------------------------------------------------------|
D#-15--15--15--15--15--15--15--15--15--15--15--15--15--15--15--15--|
G#-----------------------------------------------------------------|

===================================================================

Guitar 1
A#-----------------------------------------------------------------|
F -----------------------------------------------------------------|
C#-----------------------------------------------------------------|
G#-----------------------------------------------------------------|
D#-15--15--15--15--15--15--15--15--15--15--15--15--15--15--15--15--|
G#-----------------------------------------------------------------|

===================================================================

Guitar 1
A#-----------------------------------------------------------------|
F -----------------------------------------------------------------|
C#-----------------------------------------------------------------|
G#-----------------------------------------------------------------|
D#-14--14--14--14--14--14--14--14--14--14--14--14--14--14--14--14--|
G#-----------------------------------------------------------------|

===================================================================
===================================================================

Interlude 2

Guitar 1
A#-----------------------------------------------------------------|
F -----------------------------------------------------------------|
C#-----------------------------------------------------------------|
G#-5~~~~-5-5~~-5~~-5-5-5~~-5-5-5~~-5-5---5-5---5~~-5-5-5~~-5-5-5~~-|
D#-5~~~~-5-5~~-5~~-5-5-5~~-5-5-5~~-5-5---5-5---5~~-5-5-5~~-5-5-5~~-|
G#-5~~~~-5-5~~-5~~-5-5-5~~-5-5-5~~-5-5---5-5---5~~-5-5-5~~-5-5-5~~-|
Pm                 . .     . .     . .   . .       . .     . .

===================================================================

Guitar 1
A#-----------------------------------------------------------------|
F -----------------------------------------------------------------|
C#-----------------------------------------------------------------|
G#-8~~~~-8-8~~-8~~-8-8-8~~-8-8-8~~-8-8---8-8---8~~-8-8-8~~-8-8-8~~-|
D#-8~~~~-8-8~~-8~~-8-8-8~~-8-8-8~~-8-8---8-8---8~~-8-8-8~~-8-8-8~~-|
G#-8~~~~-8-8~~-8~~-8-8-8~~-8-8-8~~-8-8---8-8---8~~-8-8-8~~-8-8-8~~-|
Pm                 . .     . .     . .   . .       . .     . .

===================================================================

Guitar 1
A#-----------------------------------------------------------------|
F -----------------------------------------------------------------|
C#-7~~~~-7-7~~-7~~-7-7-7~~-7-7-7~~-7-7---7-7---7~~-7-7-7~~-7-7-7~~-|
G#-7~~~~-7-7~~-7~~-7-7-7~~-7-7-7~~-7-7---7-7---7~~-7-7-7~~-7-7-7~~-|
D#-5~~~~-5-5~~-5~~-5-5-5~~-5-5-5~~-5-5---5-5---5~~-5-5-5~~-5-5-5~~-|
G#-----------------------------------------------------------------|
Pm                 . .     . .     . .   . .       . .     . .

===================================================================

Guitar 1
A#-----------------------------------------------------------------|
F -----------------------------------------------------------------|
C#-6~~~~-6-6~~-6~~-6-6-6~~-6-6-6~~-6-6---6-6---6~~-6-6-6~~-6-6-6~~-|
G#-6~~~~-6-6~~-6~~-6-6-6~~-6-6-6~~-6-6---6-6---6~~-6-6-6~~-6-6-6~~-|
D#-4~~~~-4-4~~-4~~-4-4-4~~-4-4-4~~-4-4---4-4---4~~-4-4-4~~-4-4-4~~-|
G#-----------------------------------------------------------------|
Pm                 . .     . .     . .   . .       . .     . .

===================================================================

Guitar 1
A#-----------------------------------------------------------------|
F -----------------------------------------------------------------|
C#-----------------------------------------------------------------|
G#-5~~~~-5-5~~-5~~-5-5-5~~-5-5-5~~-5-5---5-5---5~~-5-5-5~~-5-5-5~~-|
D#-5~~~~-5-5~~-5~~-5-5-5~~-5-5-5~~-5-5---5-5---5~~-5-5-5~~-5-5-5~~-|
G#-5~~~~-5-5~~-5~~-5-5-5~~-5-5-5~~-5-5---5-5---5~~-5-5-5~~-5-5-5~~-|
Pm                 . .     . .     . .   . .       . .     . .

===================================================================

Guitar 1
A#-----------------------------------------------------------------|
F -----------------------------------------------------------------|
C#-----------------------------------------------------------------|
G#-8~~~~-8-8~~-8~~-8-8-8~~-8-8-8~~-8-8---8-8---8~~-8-8-8~~-8-8-8~~-|
D#-8~~~~-8-8~~-8~~-8-8-8~~-8-8-8~~-8-8---8-8---8~~-8-8-8~~-8-8-8~~-|
G#-8~~~~-8-8~~-8~~-8-8-8~~-8-8-8~~-8-8---8-8---8~~-8-8-8~~-8-8-8~~-|
Pm                 . .     . .     . .   . .       . .     . .

===================================================================

Guitar 1
A#-----------------------------------------------------------------|
F -----------------------------------------------------------------|
C#-6~~~~-6-6~~-6~~-6-6-6~~-6-6-6~~-6-6---6-6---6~~-6-6-6~~-6-6-6~~-|
G#-6~~~~-6-6~~-6~~-6-6-6~~-6-6-6~~-6-6---6-6---6~~-6-6-6~~-6-6-6~~-|
D#-4~~~~-4-4~~-4~~-4-4-4~~-4-4-4~~-4-4---4-4---4~~-4-4-4~~-4-4-4~~-|
G#-----------------------------------------------------------------|
Pm                 . .     . .     . .   . .       . .     . .

===================================================================

Guitar 1
A#-----------------------------------------------------------------|
F -----------------------------------------------------------------|
C#-6~~~~-6-6~~-6~~-6-6-6~~-6-6-6~~-6-6---6-6---6-------------------|
G#-6~~~~-6-6~~-6~~-6-6-6~~-6-6-6~~-6-6---6-6---6-------------------|
D#-4~~~~-4-4~~-4~~-4-4-4~~-4-4-4~~-4-4---4-4---4-------------------|
G#-----------------------------------------------------------------|
Pm                 . .     . .     . .   . .   .

===================================================================
===================================================================

Breakdown 3

Guitar 1
A#-----------------------------------------------------------------|
F -----------------------------------------------------------------|
C#---------------------------------7-------------------------------|
G#-7---------------------------3-----------------------------------|
D#-------------3-------4-7-4-3-------------------------7-10-7-0-0--|
G#-----0-0-0-------0-------------------0-0-0---8---0---------------|
Pm     . .         .                   . .         .

===================================================================

Guitar 1
A#-----------------------------------------------------------------|
F -----------------------------------------------------------------|
C#-----------------------------------------------------------------|
G#-8-------------------------------6-------------------------------|
D#-------------7---------------5-----------------------------------|
G#-----0-0-0-------0-0-5---0-----------0-0-5---7---0---5-7-5-0-3-0-|
Pm     . .         . .                 . .

===================================================================

Guitar 1
A#-----------------------------------------------------------------|
F -----------------------------------------------------------------|
C#---------------------------------7-------------------------------|
G#-7---------------------------3-----------------------------------|
D#-------------3-------4-7-4-3-------------------------7-10-7-0-0--|
G#-----0-0-0-------0-------------------0-0-0---8---0---------------|
Pm     . .         .                   . .         .

===================================================================

Guitar 1
A#-----------------------------------------------------------------|
F -----------------------------------------------------------------|
C#-----------------------------------------------------------------|
G#-8-------------------------------6---------------x-x-x-x-x-x-x-x-|
D#-------------7---------------5-------------------x-x-x-x-x-x-x-x-|
G#-----0-0-0-------0-0-5---0-----------0-0-5---7---x-x-x-x-x-x-x-x-|
Pm     . .         . .                 . .

===================================================================
===================================================================

Outro

Guitar 1
A#---------------------------------------------------------22-22-22-|
F ------------------------------------------------------------------|
C#------------------------------------------------------------------|
G#-0~~~----0~~~----8---7---0-0-0---0---0-0-0-0-0---0---0------------|
D#-0~~~----0~~~----8---7---0-0-0---0---0-0-0-0-0---0---0------------|
G#-0~~~----0~~~----8---7---0-0-0---0---0-0-0-0-0---0---0------------|
Pm                         . . .   .   . . . . .   .   .

===================================================================

Guitar 1
A#-22-22-22--------------------------------------------------------|
F -----------------------------------------------------------------|
C#-----------------------------------------------------------------|
G#----------0-------0-0---0-0---0----------------------3---2-------|
D#----------0-------0-0---0-0---0--------------4---5-----------0---|
G#----------0-------0-0---0-0---0----------0-----------------------|
Pm          .       . .   . .   .

===================================================================

Guitar 1
A#---------------------------------------------------------22-22-22-|
F ------------------------------------------------------------------|
C#------------------------------------------------------------------|
G#-0~~~----0~~~~~~-8---7---0-0-0---0---0-0-0-0-0---0---0------------|
D#-0~~~----0~~~~~~-8---7---0-0-0---0---0-0-0-0-0---0---0------------|
G#-0~~~----0~~~~~~-8---7---0-0-0---0---0-0-0-0-0---0---0------------|
Pm                         . . .   .   . . . . .   .   .

===================================================================

Guitar 1
A#-22-22-22---------------------------------------------------------|
F ------------------------------------------------------------------|
C#------------------------------------------------------------------|
G#----------0~~~~~~-8---7---0-0-0-----------------------------------|
D#----------0~~~~~~-8---7---0-0-0---------------------------4-4-4-4-|
G#----------0~~~~~~-8---7---0-0-0---0---0-3-5-5-5-5-7-7-7-7---------|
Pm                          . . .

===================================================================
===================================================================
===================================================================

===================================================================
Guitar 2
===================================================================

Intro

Guitar 2 (Fade In)
A#-----------------------------------------------------------------|
F -----------------------------------------------------------------|
C#-----------------------------------------------------------------|
G#-----0-10-12-----------------------------------------------------|
D#----------------/12------8---------------------------------------|
G#-0-----------0-------0-------0---0-0-0---8-7-0---5-3-0---7-5-0---|
Pm                                 . .

===================================================================

Guitar 2
A#-----------------------------------------------------------------|
F -----------------------------------------------------------------|
C#-----------------------------------------------------------------|
G#-----0-10-12-----------------------------------------------------|
D#----------------/12------8---------------------------------------|
G#-0-----------0-------0-------0---0-0-0---8-7-0---5-3-0---7-5-0---|
Pm                                 . .

===================================================================
===================================================================

Verse 1

Guitar 2
A#-----------------------------------------------------------------|
F -----------------------------------------------------------------|
C#-----------------------------------------------------------------|
G#-----0-10-12-----------------------------------------------------|
D#----------------/12------8---------------------------------------|
G#-0-----------0-------0-------0---0-0-0---8-7-0---5-3-0---7-5-0---|
Pm                                 . .

===================================================================

Guitar 2
A#-----------------------------------------------------------------|
F -----------------------------------------------------------------|
C#-----------------------------------------------------------------|
G#-------------------------2-3-2-------0-0-0---0-0-0--9-10-9-7-----|
D#---------3-------0-1-0---------------0-0-0---0-0-0-----------10--|
G#-0---3-5-----0-----------------------0-0-0---0-0-0---------------|
Pm                                     . .     . .

===================================================================

Guitar 2
A#-----------------------------------------------------------------|
F -----------------------------------------------------------------|
C#-----------------------------------------------------------------|
G#-----0-3-5-----------8-------------------------------------------|
D#-------------------------------------1-----------------------0---|
G#-0-----------0---0-------0-0-0-----------3-2-0---0-0-2---3-------|
Pm                         . .                     . .

===================================================================

Guitar 2
A#-----------------------------------------------------------------|
F -----------------------------------------------------------------|
C#-----------------------------------------------------------------|
G#-8---8-8-8---8-8-----------------------------------------0-3~~~~-|
D#-8---8-8-8---8-8-------------------------------------------------|
G#-8---8-8-8---8-8-8---10--8---7~~~~~~-10--0~~~~~~-0---0-----------|
Pm     . .     . .

===================================================================

Guitar 2
A#-----------------------------------------------------------------|
F -----------------------------------------------------------------|
C#-----------------------------------------------------------------|
G#-----0-10-12-----------------------------------------------------|
D#----------------/12------8---------------------------------------|
G#-0-----------0-------0-------0---0-0-0---8-7-0---5-3-0---7-5-0---|
Pm                                 . .

===================================================================

Guitar 2
A#-----------------------------------------------------------------|
F -----------------------------------------------------------------|
C#-----------------------------------------------------------------|
G#-------------------------2-3-2-------0-0-0---0-0-0--9-10-9-7-----|
D#---------3-------0-1-0---------------0-0-0---0-0-0-----------10--|
G#-0---3-5-----0-----------------------0-0-0---0-0-0---------------|
Pm                                     . .     . .

===================================================================

Guitar 2
A#-----------------------------------------------------------------|
F -----------------------------------------------------------------|
C#-----------------------------------------------------------------|
G#-----0-3-5-----------8-------------------------------------------|
D#-------------------------------------1-----------------------0---|
G#-0-----------0---0-------0-0-0-----------3-2-0---0-0-2---3-------|
Pm                         . .                     . .

===================================================================

Guitar 2
A#-----------------------------------------------------------------|
F -----------------------------------------------------------------|
C#-----------------------------------------------------------------|
G#-8---8-8-8---8-8-------------------------------------x-x---x-x---|
D#-8---8-8-8---8-8-------------------------------------x-x---x-x---|
G#-8---8-8-8---8-8-8---10--8---7~~~~~~-10--0~~~~~~-----x-x---x-x---|
Pm     . .     . .

===================================================================
===================================================================

Pre Chorus 1

Guitar 2
A#-----------------------------------------------------------------|
F -----------------------------------------------------------------|
C#-----------------------------------------------------------------|
G#-0-------0-0-0-0-0---0-------0-0-0-0-0-0-0---0-0-----0---0-0-0-0-|
D#-0-------0-0-0-0-0---0-------0-0-0-0-0-0-0---0-0-----0---0-0-0-0-|
G#-0-------0-0-0-0-0---0-------0-0-0-0-0-0-0---0-0-----0---0-0-0-0-|
Pm .       . . . . .   .       . . . . . . .   . .     .   . . . .

===================================================================

Guitar 2
A#-----------------------------------------------------------------|
F -----------------------------------------------------------------|
C#-----------------------------------------------------------------|
G#-0-------7-8---8-7---0-------0-0-7-7---5-3---0-------0---0-0-0-0-|
D#-0-------7-8---8-7---0-------0-0-7-7---5-3---0-------0---0-0-0-0-|
G#-0-------7-8---8-7---0-------0-0-7-7---5-3---0-------0---0-0-0-0-|
Pm .                           . .                     .   . . . .

===================================================================

Guitar 2
A#-----------------------------------------------------------------|
F -----------------------------------------------------------------|
C#-----------------------------------------------------------------|
G#-0-------0-0-0-0-0---0-------0-0-0-0-0-0-0---0-0-----3---5---7---|
D#-0-------0-0-0-0-0---0-------0-0-0-0-0-0-0---0-0-----3---5---7---|
G#-0-------0-0-0-0-0---0-------0-0-0-0-0-0-0---0-0-----3---5---7---|
Pm .       . . . . .   .       . . . . . . .   . .

===================================================================

Guitar 2
A#-----------------------------------------------------------------|
F -----------------------------------------------------------------|
C#-----------------------------------------------------------------|
G#-7-7-7---8---7--7-7-7---8---7---7-7-7---8---7---10~~~~----------|
D#-7-7-7---8---7--7-7-7---8---7---7-7-7---8---7---10~~~~----------|
G#-7-7-7---8---7--7-7-7---8---7---7-7-7---8---7---10~~~~----------|
Pm . .            . .             . .             .

===================================================================
===================================================================

Chorus

(x2)

Guitar 2
A#-----------------------------------------------------------------|
F -----------------------------------------------------------------|
C#-----------------------------------------------------------------|
G#-8~~~~-8-8~~-8~~~~-8-8-10~-8-8-10~~~-----0~~~~~~-0-0-0~~-0-0-0-0-|
D#-8~~~~-8-8~~-8~~~~-8-8-8~~-8-8-10~~~-8~~-0~~~~~~-0-0-0~~-0-0-0-0-|
G#-8~~~~-8-8~~-8~~~~-8-8-8~~-8-8-10~~~-----0~~~~~~-0-0-0~~-0-0-0-0-|
Pm                   . .     . .                   . .     . . . .

===================================================================

Guitar 2
A#-----------------------------------------------------------------|
F -----------------------------------------------------------------|
C#-------------------------------12~~~-12~-12~-12~-----------------|
G#-8~~~~-8-8~~-8~~~~-8-8-10~-8-8-10~~~-10~-10~-10~-x-x-x-x-x-x-x-x-|
D#-8~~~~-8-8~~-8~~~~-8-8-8~~-8-8-10~~~-10~-10~-10~-x-x-x-x-x-x-x-x-|
G#-8~~~~-8-8~~-8~~~~-8-8-8~~-8-8-10~~~-10~-10~-10~-x-x-x-x-x-x-x-x-|
Pm                   . .     . .                   . .     . . . .

===================================================================

Guitar 2
A#-----------------------------------------------------------------|
F -----------------------------------------------------------------|
C#-----------------------------------------------------------------|
G#-8~~~~-8-8~~-8~~~~-8-8-10~-8-8-10~~~-----0~~~~~~-0-0-0~~-0-0-0-0-|
D#-8~~~~-8-8~~-8~~~~-8-8-8~~-8-8-10~~~-8~~-0~~~~~~-0-0-0~~-0-0-0-0-|
G#-8~~~~-8-8~~-8~~~~-8-8-8~~-8-8-10~~~-----0~~~~~~-0-0-0~~-0-0-0-0-|
Pm                   . .     . .                   . .     . . . .

===================================================================

Guitar 2
A#-----------------------------------------------------------------|
F -----------------------------------------------------------------|
C#-------------------------------12~~~-12~-----7~~~~~~~~~~~~~~~~~~-|
G#-8~~~~-8-8~~-8~~~~-8-8-10~-8-8-10~~~-10~-0---0~~~~~~~~~~~~~~~~~~-|
D#-8~~~~-8-8~~-8~~~~-8-8-8~~-8-8-10~~~-10~-0---0~~~~~~~~~~~~~~~~~~-|
G#-8~~~~-8-8~~-8~~~~-8-8-8~~-8-8-10~~~-10~-0---0~~~~~~~~~~~~~~~~~~-|
Pm                   . .     . .           .

===================================================================
===================================================================

Break Off 1

Guitar 2
A#-----------------------------------------------------------------|
F -------------------------------------------------13/-15~~~~~~~~~-|
C#-------------------------------------------------16~~b~~~~~~~~~~-|
G#-0---------------x---x---x-----------x---------------------------|
D#-0---------------x---x---x-----------x---------------------------|
G#-0---------------x---x---x-----------x---------------------------|
Pm .

===================================================================
===================================================================

Breakdown 1

Guitar 2
A#-----------------------------------------------------------------|
F -----------------------------------------------------------------|
C#-----------------------------------------------------------------|
G#-0~~~----0~~~--------------------------0-------------------------|
D#-0~~~----0~~~--------------------------0-------------------------|
G#-0~~~----0~~~----8~~~~-8~~~~-11~~~-7~~-0---0-0-8---0-8---0-8-10--|
Pm                                           . .

===================================================================

Guitar 2
A#---------------------------------------------------------------------|
F ---------------------------------------------------------------------|
C#---------------------------------------------------------------------|
G#---------------------------------------------------------------------|
D#-----9-10-9----------------------------------------------------------|
G#-0----------10-8-0-0-12--0-12--0-12--0-10--0-8---0-5---0-5---7-7-7-7-|
Pm .               . .     .     .     .     .     .     .

===================================================================

Guitar 2
A#-----------------------------------------------------------------|
F -----------------------------------------------------------------|
C#-----------------------------------------------------------------|
G#-0~~~----0~~~~~~-------------------------------------------------|
D#-0~~~----0~~~~~~-------------------4b~---------------------------|
G#-0~~~----0~~~~~~-8~~~~-5~~~~-7~~~~-----0---0-0-8---0-8---0-8-10--|
Pm                                           . .

===================================================================

Guitar 2
A#---------------------------------------------------------------------|
F ---------------------------------------------------------------------|
C#-----2-3-2-0---------------------------------------------------------|
G#-------------3-0-----------------------10----8-----5-----7-----------|
D#---------------------------------------------------------------------|
G#-0---------------0-0-0---0-10--0-12--0-----0-----0-----0-----3-3-3-3-|
Pm .               . .     .     .     .     .     .     .

===================================================================

Guitar 2
A#-----------------------------------------------------------------|
F -----------------------------------------------------------------|
C#-----------------------------------------------------------------|
G#-0~~~----0~~~--------------------------0-------------------------|
D#-0~~~----0~~~--------------------------0-------------------------|
G#-0~~~----0~~~----8~~~~-8~~~~-11~~~-7~~-0---0-0-8---0-8---0-8-10--|
Pm                                           . .

===================================================================

Guitar 2
A#---------------------------------------------------------------------|
F ---------------------------------------------------------------------|
C#---------------------------------------------------------------------|
G#---------------------------------------------------------------------|
D#-----9-10-9----------------------------------------------------------|
G#-0----------10-8-0-0-12--0-12--0-12--0-10--0-8---0-5---0-5---7-7-7-7-|
Pm .               . .     .     .     .     .     .     .

===================================================================

Guitar 2
A#------------------------------------------------------------------|
F ------------------------------------------------------------------|
C#------------------------------------------------------------------|
G#-0~~-0~~~~~~------------------------------------------------------|
D#-0~~-0~~~~~~------------------------------------------------------|
G#-0~~-0~~~~~~-----8~~~~-5~~~~-7~~~~-0---0---0-0-8---0-8---0-8-10---|
Pm                                           . .

===================================================================

Guitar 2
A#---------------------------------------------------------------------|
F ---------------------------------------------------------------------|
C#-----2-3-2-0---------------------------------------------------------|
G#-------------3-0-----------------------------------------------------|
D#---------------------------7-----8-----------4-----------------------|
G#-0---------------0-0-0---0-----0-----0-8---0-----0-7---0-8---3-3-3-3-|
Pm .               . .     .     .     .     .     .     .

===================================================================
===================================================================

Break Off 2

Guitar 2
A#-------------------------------------------------|
F -15-18-15-18-15-18-15-18-17-20-17-20-17-20-17-20-|
C#-------------------------------------------------|
G#-------------------------------------------------|
D#-------------------------------------------------|
G#-------------------------------------------------|

Guitar 2 continued
A#-17--13----------13--17--13----------------------|
F ---------17--17--------------17--13~~~~~--------|
C#-------------------------------------------------|
G#-------------------------------------------------|
D#-------------------------------------------------|
G#-------------------------------------------------|

===================================================================
===================================================================

Verse 2

Guitar 2
A#-----------------------------------------------------------------|
F -----------------------------------------------------------------|
C#-----------------------------------------------------------------|
G#-----0-10-12-----------------------------------------------------|
D#----------------/12------8---------------------------------------|
G#-0-----------0-------0-------0---0-0-0---8-7-0---5-3-0---7-5-0---|
Pm                                 . .

===================================================================

Guitar 2
A#-----------------------------------------------------------------|
F -----------------------------------------------------------------|
C#-----------------------------------------------------------------|
G#-------------------------2-3-2-------0-0-0---0-0-0--9-10-9-7-----|
D#---------3-------0-1-0---------------0-0-0---0-0-0-----------10--|
G#-0---3-5-----0-----------------------0-0-0---0-0-0---------------|
Pm                                     . .     . .

===================================================================

Guitar 2
A#-----------------------------------------------------------------|
F -----------------------------------------------------------------|
C#-----------------------------------------------------------------|
G#-----0-3-5-----------8-------------------------------------------|
D#-------------------------------------1-----------------------0---|
G#-0-----------0---0-------0-0-0-----------3-2-0---0-0-2---3-------|
Pm                         . .                     . .

===================================================================

Guitar 2
A#-----------------------------------------------------------------|
F -----------------------------------------------------------------|
C#-----------------------------------------------------------------|
G#-8---8-8-8---8-8-----------------------------------------0-3~~~~-|
D#-8---8-8-8---8-8-------------------------------------------------|
G#-8---8-8-8---8-8-8---10--8---7~~~~~~-10--0~~~~~~-0---0-----------|
Pm     . .     . .

===================================================================
===================================================================

Breakdown 2

Guitar 2
A#-----------------------------------------------------------------|
F -----------------------------------------------------------------|
C#-----------------------------------------------------------------|
G#-0-------0---0-------0-------0---0-------0-------0-------0-0-0-0-|
D#-0-------0---0-------0-------0---0-------0-------0-------0-0-0-0-|
G#-0-------0---0-------0-------0---0-------0-------0-------0-0-0-0-|
Pm .       .   .       .       .   .       .       .       . . . .

===================================================================

Guitar 2
A#-----------------------------------------------------------------|
F ---------------------------------10------------------------------|
C#-----------------------------------------------------------------|
G#-----------------------------------------------------7---5---7---|
D#-----------------------------------------------------7---5---7---|
G#-------------------------------------0---7-7-5-------7---5---7---|

===================================================================

Guitar 2
A#-----------------------------------------------------------------|
F -----------------------------------------------------------------|
C#-----------------------------------------------------------------|
G#-0-------0---0-------0-------0---0-------0-------0-------0-0-0-0-|
D#-0-------0---0-------0-------0---0-------0-------0-------0-0-0-0-|
G#-0-------0---0-------0-------0---0-------0-------0-------0-0-0-0-|
Pm .       .   .       .       .   .       .       .       . . . .

===================================================================

Guitar 2
A#-----------------------------------------------------------------|
F -----------------------------------------------------------------|
C#---------------------------------3---2-3-2-0-----0---2-----------|
G#---------------------------------------------3-----------3-------|
D#-5---5-5-5---5-5-5---7---5---4-------------------------------4---|
G#-----------------------------------------------------------------|
Pm     . .     . .

===================================================================
===================================================================

Pre Chorus 2

Guitar 2
A#------------------------------------------------------------------|
F ------------------------------------------------------------------|
C#------------------------------------------------------------------|
G#-0~~~----0~~~----8---7---0-0-0---0---0-0-0-0-0---0---0------------|
D#-0~~~----0~~~----8---7---0-0-0---0---0-0-0-0-0---0---0------------|
G#-0~~~----0~~~----8---7---0-0-0---0---0-0-0-0-0---0---0------------|
Pm                         . . .   .   . . . . .   .   .

===================================================================

Guitar 2
A#-----------------------------------------------------------------|
F -----------------------------------------------------------------|
C#-----------------------------------------------------------------|
G#----------0-------0-0---0-0---0----------------------7---5-------|
D#----------0-------0-0---0-0---0--------------4---5-----------7---|
G#----------0-------0-0---0-0---0----------0-----------------------|
Pm          .       . .   . .   .

===================================================================

Guitar 2
A#------------------------------------------------------------------|
F ------------------------------------------------------------------|
C#------------------------------------------------------------------|
G#-0~~~----0~~~~~~-8---7---0-0-0---0---0-0-0-0-0---0---0------------|
D#-0~~~----0~~~~~~-8---7---0-0-0---0---0-0-0-0-0---0---0------------|
G#-0~~~----0~~~~~~-8---7---0-0-0---0---0-0-0-0-0---0---0------------|
Pm                         . . .   .   . . . . .   .   .

===================================================================

Guitar 2
A#-----------------------------------------------------------------|
F -----------------------------------------------------------------|
C#----------------------------------------------5~~~~~-------------|
G#----------0-------0-0---0-0---0---5---3---5----------7---7---7---|
D#----------0-------0-0---0-0---0----------------------------------|
G#----------0-------0-0---0-0---0----------------------------------|
Pm          .       . .   . .   .

===================================================================
===================================================================

Chorus

(x2)

Guitar 2
A#-----------------------------------------------------------------|
F -----------------------------------------------------------------|
C#-----------------------------------------------------------------|
G#-8~~~~-8-8~~-8~~~~-8-8-10~-8-8-10~~~-----0~~~~~~-0-0-0~~-0-0-0-0-|
D#-8~~~~-8-8~~-8~~~~-8-8-8~~-8-8-10~~~-8~~-0~~~~~~-0-0-0~~-0-0-0-0-|
G#-8~~~~-8-8~~-8~~~~-8-8-8~~-8-8-10~~~-----0~~~~~~-0-0-0~~-0-0-0-0-|
Pm                   . .     . .                   . .     . . . .

===================================================================

Guitar 2
A#-----------------------------------------------------------------|
F -----------------------------------------------------------------|
C#-------------------------------12~~~-12~-12~-12~-----------------|
G#-8~~~~-8-8~~-8~~~~-8-8-10~-8-8-10~~~-10~-10~-10~-x-x-x-x-x-x-x-x-|
D#-8~~~~-8-8~~-8~~~~-8-8-8~~-8-8-10~~~-10~-10~-10~-x-x-x-x-x-x-x-x-|
G#-8~~~~-8-8~~-8~~~~-8-8-8~~-8-8-10~~~-10~-10~-10~-x-x-x-x-x-x-x-x-|
Pm                   . .     . .                   . .     . . . .

===================================================================

Guitar 2
A#-----------------------------------------------------------------|
F -----------------------------------------------------------------|
C#-----------------------------------------------------------------|
G#-8~~~~-8-8~~-8~~~~-8-8-10~-8-8-10~~~-----0~~~~~~-0-0-0~~-0-0-0-0-|
D#-8~~~~-8-8~~-8~~~~-8-8-8~~-8-8-10~~~-8~~-0~~~~~~-0-0-0~~-0-0-0-0-|
G#-8~~~~-8-8~~-8~~~~-8-8-8~~-8-8-10~~~-----0~~~~~~-0-0-0~~-0-0-0-0-|
Pm                   . .     . .                   . .     . . . .

===================================================================

Guitar 2
A#-----------------------------------------------------------------|
F -----------------------------------------------------------------|
C#-------------------------------12~~~-12~-----7~~~~~~~~~~~~~~~~~~-|
G#-8~~~~-8-8~~-8~~~~-8-8-10~-8-8-10~~~-10~-0---0~~~~~~~~~~~~~~~~~~-|
D#-8~~~~-8-8~~-8~~~~-8-8-8~~-8-8-10~~~-10~-0---0~~~~~~~~~~~~~~~~~~-|
G#-8~~~~-8-8~~-8~~~~-8-8-8~~-8-8-10~~~-10~-0---0~~~~~~~~~~~~~~~~~~-|
Pm                   . .     . .           .

===================================================================
===================================================================

Interlude 1

Guitar 2
A#-----------------------------------------------------------------|
F -----------------------------------------------------------------|
C#-14--14--14--14--14--14--14--14--14--14--14--14--14--14--14--14--|
G#-----------------------------------------------------------------|
D#-----------------------------------------------------------------|
G#-----------------------------------------------------------------|

===================================================================

Guitar 2
A#-----------------------------------------------------------------|
F -11--11--11--11--11--11--11--11--11--11--11--11--11--11--11--11--|
C#-14--14--14--14--14--14--14--14--14--14--14--14--14--14--14--14--|
G#-----------------------------------------------------------------|
D#-----------------------------------------------------------------|
G#-------------
 
 
Memphis May Fire - Jezebel Tab :: indexed at Ultimate Guitar.
Jezebel tabs @ 911Tabs
People who played Memphis May Fire - Jezebel Tab also played these songs by Memphis May Fire:
Miles Away Chords, No Ordinary Love Chords, Speechless Chords, Miles Away Tab, Miles Away Chords, Cowbells Makin A Comeback Tab

Quick tip, so you can enjoy Jezebel Tab even more:

Try out the AutoScroller option ... It scrolls the page for you, so you can totally focus on nailing that solo. You can choose among different speeds using your mouse or your keyboard (keys 0, 1, 2 and 3).

Show us your talent, perform Jezebel Tab!

Here you can post a video or audio performance. Tell me more ...
Where can we find your performance? Tell me more ...
Your comment:
Please, log in to post your performance.