Artists by letter: A B C D E F G H I J K L M N O P Q R S T U V W X Y Z 0-9

 
Lullaby Tab
This is a beta-version (it sounds very good but it has some errors)...and this is my firt tab! :)



-------------------------------------------------------------------



Goran Bregovich - Lullaby - 1 guitar - tab by g0dzy - arranged by jaromaz
( http://www.youtube.com/watch?v=xjlHuFdh93o )





Mini-Legenda:

12h13r12 = play the string 12th fret, than hammer-on on the 13th fret
than release the finger on the 13th keeping the other finger on the 12th
 fret (this movementi is very quick)

 = harmonic on the 12th fret







|-----------------------------------------------------|
|-------------10--12-----12h13r12---------------------|
|--9--11--12----------0--------------------------------------|
|------------------------------------------------------------|
|------------------------------------------------------------|
|------------------------12-------------------------------|

------------------0---------3-----3--3--2--3--5--2h3p2--|
----------1--13----3-----------------------------------|
-------0--------------0---------------------------------|
----2--------24---------------2------------------------|
-0--------------------------3-----------0---------------|
--------------------------------------------------------|

----------------------------------------------------0---|
--------------------------------------1----------3------|
------------------------------------------0----------0---------|
---------------------------------------2--------24------------|
----------------------------------0----------------------------|
--------------------------------------------------------|



|------------------------------------------------------|
|-------------10--12-----12h13r12----------------------|
|--9--11--12----------0---------------------------------------|
|-------------------------------------------------------------|
|-------------------------------------------------------------|
|------------------------12--------------------------------|

---------------------------2-----3--3--2--3--5--2h3p2----|
-----------1--18--7--54--------------------------------|
--------0------------------------------------------------|
-----2--------29--7--54-----2--------------------------|
--0------------------------3-----------0-----------------|
---------------------------------------------------------|



-----3p0----------------------------------------0--------|
----------0-----------3-----------1----------------3-----|
-------------------4-----------0-------------0--------0--|
--2-------------4-----------2-------------4--------------|
-------------2-----------0-----------3/5-----------------|
---------------------------------------------------------|

-3-----3--3--2--3--5-----2h3p2---|
---------------------------------|
---------------------------------|  PAUSE...
----2----------------------------|
-3-----------0-------------------|
---------------------------------|



----------------------------------------------------|
-----8--8--8-----3--3--3-----1--1--1--18--7--545-|
-----7--7--7-----2--2--2-----0--0--0----------------|
-----9--9--9-----4--4--4-----2--2--2--29--7--545-|
--7-----------2-----------0-------------------------|
----------------------------------------------------|

-3p0----------------------------------------------|
------0-----------3-----------1----------3-----5--|
---------------4-----------0----------------0-----|  PAUSE..
------------4-----------2-------------4-----------|
---------2-----------0-----------3/5--------------|
--------------------------------------------------|

----------------------------------------------------|
--------3--353--------1--------3--353--------1--|
-----2------------------------2---------------------|
--0------------------2-----0------------------2-----|
------------------3------------------------3--------|
----------------------------------------------------|

-----------------------------------------------------------------------|
-0-----0--0-----0-----------0h1p0-----------------------0h1p0----------|
-------------------------4---------------2---------------------------2-|
----------------------4---------------2--------------2------------2----|
----2--------2-----2---------------0--------------2------------0-------|
-0--------3---------------------------------0--0-----------------------|

SOLO

|--12--10h12p10--------------------------------------------------|
|----------------12--10--8--10--8h10p8--10--12--10--8------------|
|------------------------------------------------------9--7--9~--|
|----------------------------------------------------------------|
|----------------------------------------------------------------|
|----------------------------------------------------------------|



-------------------------------|
-------------------------------|
-----------------------------------|
--9--9h10--9---------9-------------|
--------------10--9----------------|
------------------------0----------|



-------------------------------------------------------------
 
 
Goran Bregovic - Lullaby Tab :: indexed at Ultimate Guitar.
Lullaby tabs @ 911Tabs
People who played Goran Bregovic - Lullaby Tab also played these songs by Goran Bregovic:
Ederlezi Chords, Bubamara Chords, Lullaby Tab, Ena Tragoudi Gia Tin Eleni F Chords, Be That Man Chords, Lullaby

Quick tip, so you can enjoy Lullaby Tab even more:

If you don't really know how to deal with "Absus4" chord and his equally confusing brothers, just put the mouse cursor over them and you will be shown a helpful chord diagram.

Show us your talent, perform Lullaby Tab!

Here you can post a video or audio performance. Tell me more ...
Where can we find your performance? Tell me more ...
Your comment:
Please, log in to post your performance.