Artists by letter: A B C D E F G H I J K L M N O P Q R S T U V W X Y Z 0-9

 
Because Of You Tab
Tabbed by: Josh Daley

Tuning: F Bb Eb Ab C F  - ( Half-step up )



Intro:

-----------0----0----2----|
------3----0----3----0----|
------2----2----2----2----|
------0----2----x----0----|
------0----0----2----2----|
------3-------------------|

-------0-------0-0---|
--3----0----3--2-0---|
--2----2----2--2-0---|
--0----2----0--2-2---|
--0----0----0--0-----|
--3---------3--------|



Verse:

-------0----0-------------0----0----0----|
--3----0----3--------3----0----3----0----|
--2----2----2--------2----2----2----0----|
--0----2----x--------0----2----x----0----|
--0----0----2--------0----0----2----2----|
--3------------------3--------------0----|



Pre Chorus:

-------0----0-------------0-------0-0-----|
--3----0----3--------3----0----3--2-0-----|
--2----2----2--------2----2----2--2-0-----|
--0----2----x--------0----2----0--2-2-----|
--0----0----2--------0----0----0--0-------|
--3------------------3---------3----------|

-------0----0-------------0----0----0----|
--3----0----3--------3----0----3----0----|
--2----2----2--------2----2----2----0----|
--0----2----x--------0----2----x----0----|
--0----0----2--------0----0----2----2----|
--3------------------3--------------0----|



Chorus:

-------0----0-------------0-------0-0--------0-0-----|
--3----0----3--------3----0----3--2-0-----3--2-0-----|
--2----2----2--------2----2----2--2-0-----2--2-0-----|
--0----2----x--------0----2----0--2-2-----0--2-2-----|
--0----0----2--------0----0----0--0-------0--0-------|
--3------------------3---------3----------3----------|



Bridge:

------2---------0-----|
--3---0-----1---1-----|
--4---2-----2---0-----|  x 2
--2---0-----0---2-----|
--3---2-----1---0-----|
----------------------|

--4----3-------------|
--4----3----3--------|
--5----3----4--------|
--5----3----2--------|
--6----5----3--------|
--4----3-------------|

Outro: (Straight after bridge)

-------0----0-------------0----|
--3----0----3--------3----0----|
--2----2----2--------2----2----|
--0----2----x--------0----2----|
--0----0----2--------0----0----|
--3------------------3---------|

-----0-0-----|
--3--0-0-----|
--2--2-0-----|  x 2    ~ Play chorus x1 ~
--0--2-2-----|
--0--0-------|
--3----------|

-----0-2-----|
--3--3-3-----|
--2--3-4-----|
--0--3-4-----|
--0--0-2-----|
--3--3-2-----|
       Let ring
 
 
Ne-yo - Because Of You Tab :: indexed at Ultimate Guitar.
Because Of You tabs @ 911Tabs

Quick tip, so you can enjoy Because Of You Tab even more:

If you spend just 10 seconds to register, you will be able to comment on all the chords and tabs and rate them. You will as well be able to comment on videos of your fellow guitarists and give them ratings from 1 to 5 ... And - of course - you can share your own videos with them and see what they think of you. :)
Click here to join us!

Show us your talent, perform Because Of You Tab!

Here you can post a video or audio performance. Tell me more ...
Where can we find your performance? Tell me more ...
Your comment:
Please, log in to post your performance.