Artists by letter: A B C D E F G H I J K L M N O P Q R S T U V W X Y Z 0-9

 
Sunrise Tab
-----------------------------------------------------------------------------
                              Sunrise - Washya
-----------------------------------------------------------------------------
Tuning: Drop D (DADGBE)
Intro
E|---------------------|
B|---------------------|
G|---------------------|
D|---------------------|
A|-0-2-0-00-55-6-0-1-0-|
D|-0-2-0-00-55-6-0-1-0-|x3

Main Riff
E|------------------------|
B|------------------------|
G|------------------------|
D|------------------------|
A|-0-2/5552/666-0-11-0-1-|
D|-0-2/5552/666-0-11-0-1-|

Verses
E|------------------------|
B|------------------------|
G|------------------------|
D|------------------------|
A|-0-2/5552/666-0-11-0-1-|
D|-0-2/5552/666-0-11-0-1-|
PM * * *** * *** * ** * *

Main Riff
E|------------------------|
B|------------------------|
G|------------------------|
D|------------------------|
A|-0-2/5552/666-0-11-0-1-|
D|-0-2/5552/666-0-11-0-1-|

Solo
E|-----------------------------10-10b~--12b-10-------------15----15-18~-|
B|---------------------8---8p7--------------------12----12----12--------|
G|-/5-85-8-10b------5---5---------------------10----10-----------------|
D|--------------7-7~----------------------------------------------------|
A|----------------------------------------------------------------------|
D|----------------------------------------------------------------------|
 
 
Washya - Sunrise Tab :: indexed at Ultimate Guitar.
Sunrise tabs @ 911Tabs

Quick tip, so you can enjoy Sunrise Tab even more:

After the registration (which takes just 10 seconds, remember?) you will be able to use your profile - your very own piece of YourChords.com.

Show us your talent, perform Sunrise Tab!

Here you can post a video or audio performance. Tell me more ...
Where can we find your performance? Tell me more ...
Your comment:
Please, log in to post your performance.